Greenwheel - Strong Chords & Tabs

 

Strong Chords & Tabs

Greenwheel Chords & Tabs

Version: 1 Type: Tab 0 ratings
1 star 2 stars 3 stars 4 stars 5 stars
comments

Strong Tab

   
Song: Strong
Group: Greenwheel
CD: Soma Holiday
Lyrics: Greenwheel
Music: Greenwheel
Label: Universal
Year: 2002

Tabbed and Submitted by Tie Kaye

Tuning: Standard

Intro:
     Part 1
          e-|---------------------------------|
          B-|---------------------------------|
          G-|---------------------------------|
          D-|---------------------------------|
          A-|-3-3-3-3-3-3-3-3-3-3-3-3-3-3-3-3-|
          E-|---------------------------------|

     Part 2
          e-|--------------|---------------|
          B-|--------------|---------------|
          G-|-5------------|---------------|
          D-|-5------------|-3----6--------|
          A-|-3------------|-3----6--------|
          E-|--------------|-1----4--------|

     Part 3
          e-|-----------------------|-----------------------|
          B-|-----------------------|-----------------------|
          G-|-5---55----5---55----5-|--55----5---55---------|
          D-|-5---55----5---55----5-|--55----5---55---------|
          A-|-3---33----3---33----3-|--33----3---33---------|
          E-|-----------------------|-----------------------|
                   |         |          |         |
                 block     block      block     block

Pre-Chorus 1:
     e-|--------------|--------------|--------------|--------------|
     B-|--------------|--------------|--------------|--------------|
     G-|-5------------|-8------------|-5------------|--------------|
     D-|-5------------|-8------------|-5------------|-333333333333-|
     A-|-3------------|-6------------|-3------------|-333333333333-|
     E-|--------------|--------------|--------------|-111111111111-|
[ Tab from: http://www.guitartabs.cc/tabs/g/greenwheel/strong_tab.html ]
Chorus:
     e-|---------------------|-------------------|         e-|--------------|
     B-|---------------------|-------------------|         B-|--------------|
     G-|-5---55--5---55--5---|-------------------| x4 then G-|-5------------| (let ring)
     D-|-5---55--5---55--5---|-3-----/6------6---|         D-|-5------------|
     A-|-3---33--3---33--3---|-3-----/6------6---|         A-|-3------------|
     E-|---------------------|-1-----/4------4-3-|         E-|--------------|
                                                               |
                                                               Only played to start the 2nd Verse

Pre-Chorus 2:
     e-|--------------|--------------|--------------|--------------|
     B-|--------------|--------------|--------------|--------------|
     G-|-5------------|-8------------|-5------------|--------------|
     D-|-5------------|-8------------|-5------------|-3------------|
     A-|-3------------|-6------------|-3------------|-3------------|
     E-|--------------|--------------|--------------|-1------------|
                                                      |
                                                    block

Bridge:
     e-|----------------------|---------------|
     B-|----------------------|---------------|
     G-|-5---5---5---5---5----|---------------|
     D-|-5---5---5---5---5----|-3-----/6------|
     A-|-2/3-2/3-2/3-2/3-2/3--|-3-----/6------|
     E-|----------------------|-1-----/4------|Intro Part 1 (x2)
Intro Part 2 (x2)
Intro Part 3
     Here I am

Off
     All alone
     Situations overwhelming again
     "Be strong,"
     I tell myself but fall right back again

Pre-Chorus 1
     But hold on
     I think I just realized something

Chorus
     Here I am right in your hands
     There I am letting you take what you can
     I won't let this happen again
     No, I'm too strong to fall again

     A light of hope
     Is fading more each time I breathe

Off
     And decide
     Right or wrong, too many roads, a wounded soul in need

Pre-Chorus 2
     But hold on
     I think I just realized something

Chorus
     Here I am right in your hands
     There I am letting you take what you can
     I won't let this happen again
     No, I'm too strong to fall again

Solo

Intro Part 3 (x2)
     I won't fall
     Too strong

Pre-Chorus 1
     Hold on
     I think I just realized something

Chorus
     Here I am right in your hands
     There I am letting you take what you can
     I won't let this happen again
     No, I'm too strong
     I won't fall again

Bridge
     Here I am
     Well, here I am
     No, I won't let this happen again

Intro Part 3 (x3)
     Here I am
     I won't fall
     I'm too strong
Comments