Greenwheel - I Dont Believe Chords & Tabs

 

I Dont Believe Chords & Tabs

Greenwheel Chords & Tabs

Version: 3 Type: Tab 0 ratings
1 star 2 stars 3 stars 4 stars 5 stars
comments

I Dont Believe Tab

   
Title: I Don't Believe
Artist: Greenwheel
Album: Soma Holiday Indie

Tabbed by: Skyliner (isacisacisac@hotmail.com)
Some corrections made by: gagg-OLF

This tab is far from perfect, but it is playable atleast. 
If you want the "plingeling" in the chorus while the second guitar strums.. Tab it yourself!
Email any complains or so to people who deserve it. Like for example Bill Gates.

Just play it right down to the bottom. When it says "play this X times" you just play the line
in front of it X times before moving on to the next line.

LEGEND

 / = Slide to note
(0)= Hit string lightly
 ^ = Downstroke
 v = Upstroke
 h = Hammer-On

 Standard tuning (Eadgbe)

 ---------
   VERSE
 ---------

 ||-----5/7----------|---3---------2-----||
 ||----(0)-----------|-----0---------3---||
 ||------------------|-------0---0-----0-|| (Play six times 
 ||------------------|-------------------||  for the verse)
 ||------------------|-2-------3---------||
 ||-0----------------|-------------------||

 --------------
   PRE-CHORUS
 --------------

 ||-3----------------|-2-----------------|------------------|------------------||
 ||-3----------------|-3-----------------|------------------|------------------||
 ||-0----------------|-2-----------------|---------0--------|---------0--------||
 ||-0----------------|-0-----------------|-----4-----4----4-|-----4-----4------||
 ||-2----------------|-------------------|---2---2-----2----|---2---2-----2----||
 ||-3----------------|-------------------|-0----------------|-0----------------||
    ^                  ^

 ||-3----------------|-2-----------------|------------------|----------0-------||
 ||-3----------------|-3-----------------|------------------|--3---------3---3-||
 ||-0----------------|-2-----------------|---------0--------|----0---0-----0---||
 ||-0----------------|-0-----------------|-----4-----4----4-|------4-----------||
 ||-2----------------|-------------------|---2---2-----2----|------------------||
 ||-3----------------|-------------------|-0----------------|------------------||
    ^                  ^

 ----------
   CHORUS
 ----------

 ||-3---3--3--3-3--3-|-2---2--2--2-2--2--|-0---0--0--0-0--0-|-0---0--0--0-0--0-||
 ||-3---3--3--3-3--3-|-0h3-3--3--3-3--3--|-1---1--1--1-1--1-|-1---1--1--1-1--1-||
 ||-0---0--0--0-0--0-|-2---2--2--2-2--2--|-0---0--0--0-0--0-|-0---0--0--0-0--0-||
 ||-0---0--0--0-0--0-|-0---0--0--0-0--0--|-2---2--2--2-2--2-|-2---2--2--2-2--2-||
 ||-0h2-2--2--2-2--2-|-------------------|-3---3--3--3-3--3-|-3---3--3--3-3--3-||
 ||-0h3-3--3--3-3--3-|-------------------|-0---0--0--0-0--0-|-0---0--0--0-0--0-||
    ^   ^  ^  ^ v  ^   ^   ^  ^  ^ v  ^    ^   ^  ^  ^ v  ^   ^   ^  ^  ^ v  ^

 ||-3---3--3--3-3--3-|-2---2--2--2-2--2--|-0---0--0--0-0--0-|------------------|| 
 ||-3---3--3--3-3--3-|-0h3-3--3--3-3--3--|-1---1--1--1-1--1-|--------------3---||
 ||-0---0--0--0-0--0-|-2---2--2--2-2--2--|-0---0--0--0-0--0-|----------0-------||  (Play this
 ||-0---0--0--0-0--0-|-0---0--0--0-0--0--|-2---2--2--2-2--2-|------2-----------||  part twice)
 ||-0h2-2--2--2-2--2-|-------------------|-3---3--3--3-3--3-|--3---------------||
 ||-0h3-3--3--3-3--3-|-------------------|-0---0--0--0-0--0-|------------------||
    ^   ^  ^  ^ v  ^   ^   ^  ^  ^ v  ^    ^   ^  ^  ^ v  ^ 

 ---------
   VERSE
 ---------

 ||-----5/7----------|---3---------2-----||
 ||----(0)-----------|-----0---------3---||
 ||------------------|-------0---0-----0-|| (Play eight times 
 ||------------------|-------------------||  for the verse)
 ||------------------|-2-------3---------||
 ||-0----------------|-------------------||

 --------------
   PRE-CHORUS
 --------------

 ||-3--3-------------|-2--2--------------|------------------|------------------||
 ||-3--3-------------|-3--3--------------|------------------|------------------||
 ||-0--0-------------|-2--2--------------|---------0--------|---------0--------||
 ||-0--0-------------|-0--0--------------|-----4-----4----4-|-----4-----4------||
 ||-2--2-------------|-------------------|---2---2-----2----|---2---2-----2----||
 ||-3--3-------------|-------------------|-0----------------|-0----------------||
    ^  ^               ^  ^
[ Tab from: http://www.guitartabs.cc/tabs/g/greenwheel/i_dont_believe_tab_ver_3.html ]
 ||-3--3-------------|-2--2--------------|------------------|----------0-------||
 ||-3--3-------------|-3--3--------------|------------------|--3---------3---3-||
 ||-0--0-------------|-2--2--------------|---------0--------|----0---0-----0---||
 ||-0--0-------------|-0--0--------------|-----4-----4----4-|------4-----------||
 ||-2--2-------------|-------------------|---2---2-----2----|------------------||
 ||-3--3-------------|-------------------|-0----------------|------------------||
    ^  ^               ^  ^

 ----------
   CHORUS
 ----------

 ||-3---3--3--3-3--3-|-2---2--2--2-2--2--|-0---0--0--0-0--0-|-0---0--0--0-0--0-||
 ||-3---3--3--3-3--3-|-0h3-3--3--3-3--3--|-1---1--1--1-1--1-|-1---1--1--1-1--1-||
 ||-0---0--0--0-0--0-|-2---2--2--2-2--2--|-0---0--0--0-0--0-|-0---0--0--0-0--0-||
 ||-0---0--0--0-0--0-|-0---0--0--0-0--0--|-2---2--2--2-2--2-|-2---2--2--2-2--2-||
 ||-0h2-2--2--2-2--2-|-------------------|-3---3--3--3-3--3-|-3---3--3--3-3--3-||
 ||-0h3-3--3--3-3--3-|-------------------|-0---0--0--0-0--0-|-0---0--0--0-0--0-||
    ^   ^  ^  ^ v  ^   ^   ^  ^  ^ v  ^    ^   ^  ^  ^ v  ^   ^   ^  ^  ^ v  ^

 ||-3---3--3--3-3--3-|-2---2--2--2-2--2--|-0---0--0--0-0--0-|------------------|| 
 ||-3---3--3--3-3--3-|-0h3-3--3--3-3--3--|-1---1--1--1-1--1-|--------------3---||
 ||-0---0--0--0-0--0-|-2---2--2--2-2--2--|-0---0--0--0-0--0-|----------0-------||
 ||-0---0--0--0-0--0-|-0---0--0--0-0--0--|-2---2--2--2-2--2-|------2-----------||
 ||-0h2-2--2--2-2--2-|-------------------|-3---3--3--3-3--3-|--3---------------||
 ||-0h3-3--3--3-3--3-|-------------------|-0---0--0--0-0--0-|------------------||
    ^   ^  ^  ^ v  ^   ^   ^  ^  ^ v  ^    ^   ^  ^  ^ v  ^ 

 ----------
   BRIDGE
 ----------

 ||-3---3--3--3-3--3-|-2---2--2--2-2--2--|-0---0--0--0-0--0-|-0---0--0--0-0--0-||
 ||-3---3--3--3-3--3-|-3---3--3--3-3--3--|-1---1--1--1-1--1-|-1---1--1--1-1--1-||
 ||-0---0--0--0-0--0-|-2---2--2--2-2--2--|-0---0--0--0-0--0-|-0---0--0--0-0--0-||
 ||-0---0--0--0-0--0-|-0---0--0--0-0--0--|-2---2--2--2-2--2-|-2---2--2--2-2--2-||
 ||-2--------------2-|-------------------|-3--------------3-|-3--------------3-||
 ||-3--------------3-|-------------------|-0--------------0-|-0--------------0-||
    ^   ^  ^  ^ v  ^   ^   ^  ^  ^ v  ^    ^   ^  ^  ^ v  ^   ^   ^  ^  ^ v  ^

 ||-3---3--3--3-3--3-|-2---2--2--2-2--2--|--0---------------|| 
 ||-3---3--3--3-3--3-|-3---3--3--3-3--3--|--1-----1---------||
 ||-0---0--0--0-0--0-|-2---2--2--2-2--2--|--0-----0---------||
 ||-0---0--0--0-0--0-|-0---0--0--0-0--0--|--2-----2---------||
 ||-2---2--2--2-2--2-|-------------------|--------3---------||
 ||-3---3--3--3-3--3-|-------------------|--------0---------||
    ^   ^  ^  ^ v  ^   ^   ^  ^  ^ v  ^     ^     ^  

 --------------
   PRE-CHORUS
 --------------

 ||-3----------------|-2-----------------|------------------|------------------||
 ||-3----------------|-3-----------------|------------------|------------------||
 ||-0----------------|-2-----------------|---------0--------|---------0--------||
 ||-0----------------|-0-----------------|-----4-----4----4-|-----4-----4------||
 ||-2----------------|-------------------|---2---2-----2----|---2---2-----2----||
 ||-3----------------|-------------------|-0----------------|-0----------------||
    ^                  ^

 ||-3----------------|-2-----------------|------------------|----------0-------||
 ||-3----------------|-3-----------------|------------------|--3---------3---3-||
 ||-0----------------|-2-----------------|---------0--------|----0---0-----0---||
 ||-0----------------|-0-----------------|-----4-----4----4-|------4-----------||
 ||-2----------------|-------------------|---2---2-----2----|------------------||
 ||-3----------------|-------------------|-0----------------|------------------||
    ^                  ^

 ----------
   CHORUS
 ----------

 ||-3---3--3--3-3--3-|-2---2--2--2-2--2--|-0---0--0--0-0--0-|-0---0--0--0-0--0-||
 ||-3---3--3--3-3--3-|-0h3-3--3--3-3--3--|-1---1--1--1-1--1-|-1---1--1--1-1--1-||
 ||-0---0--0--0-0--0-|-2---2--2--2-2--2--|-0---0--0--0-0--0-|-0---0--0--0-0--0-||(Play 3 times)
 ||-0---0--0--0-0--0-|-0---0--0--0-0--0--|-2---2--2--2-2--2-|-2---2--2--2-2--2-||
 ||-0h2-2--2--2-2--2-|-------------------|-3---3--3--3-3--3-|-3---3--3--3-3--3-||
 ||-0h3-3--3--3-3--3-|-------------------|-0---0--0--0-0--0-|-0---0--0--0-0--0-||
    ^   ^  ^  ^ v  ^   ^   ^  ^  ^ v  ^    ^   ^  ^  ^ v  ^   ^   ^  ^  ^ v  ^

 ||-3---3--3--3-3--3-|-2---2--2--2-2--2--|-0---0--0--0-0--0-|--------3---------|| 
 ||-3---3--3--3-3--3-|-0h3-3--3--3-3--3--|-1---1--1--1-1--1-|-------3----------||
 ||-0---0--0--0-0--0-|-2---2--2--2-2--2--|-0---0--0--0-0--0-|------0-----------||
 ||-0---0--0--0-0--0-|-0---0--0--0-0--0--|-2---2--2--2-2--2-|-----0------------||
 ||-0h2-2--2--2-2--2-|-------------------|-3---3--3--3-3--3-|----2-------------||
 ||-0h3-3--3--3-3--3-|-------------------|-0---0--0--0-0--0-|---3--------------||
    ^   ^  ^  ^ v  ^   ^   ^  ^  ^ v  ^    ^   ^  ^  ^ v  ^
Comments