Greenwheel - Breathe Chords & Tabs

 

Breathe Chords & Tabs

Greenwheel Chords & Tabs

Version: 1 Type: Chords 1 rating
1 star 2 stars 3 stars 4 stars 5 stars
comments

Breathe Chords

   
-------------------------------------------------------------------------------
			     BREATHE - GREENWHEEL	
-------------------------------------------------------------------------------

By:KYLE HESLER
VERSE 1
     G       A      Em	     G       A
e|---3---|---0---|---0---|---3---|---0---|
B|---2---|---0---|---2---|---2---|---0---|
G|---0---|---2---|---2---|---0---|---2---|
D|---0---|---2---|---0---|---0---|---2---|
A|---3---|---2---|---0---|---0---|---2---|
E|---3---|---0---|---0---|---3---|---0---|

    Em       A       Em      G       G
e|---0---|---0---|---0---|---3---|---3---|
B|---2---|---0---|---2---|---2---|---2---|
G|---2---|---2---|---2---|---0---|---0---|
D|---0---|---2---|---0---|---0---|---0---|
A|---0---|---2---|---0---|---0---|---0---|
E|---0---|---0---|---0---|---3---|---3---|

CHORUS
     D       A      Em       G       A     
e|---2---|---0---|---0---|---3---|---0---|
B|---0---|---0---|---2---|---2---|---0---|
G|---0---|---2---|---2---|---0---|---2---|
D|---2---|---2---|---0---|---0---|---2---|
A|---3---|---2---|---0---|---0---|---2---|
E|---2---|---0---|---0---|---3---|---0---|

VERSE 2
     G       A      Em	     G       A
e|---3---|---0---|---0---|---3---|---0---|
B|---2---|---0---|---2---|---2---|---0---|
G|---0---|---2---|---2---|---0---|---2---|
D|---0---|---2---|---0---|---0---|---2---|
A|---3---|---2---|---0---|---0---|---2---|
E|---3---|---0---|---0---|---3---|---0---|

    Em       A       Em      G       G
e|---0---|---0---|---0---|---3---|---3---|
B|---2---|---0---|---2---|---2---|---2---|
G|---2---|---2---|---2---|---0---|---0---|
D|---0---|---2---|---0---|---0---|---0---|
A|---0---|---2---|---0---|---0---|---0---|
E|---0---|---0---|---0---|---3---|---3---|

CHORUS
     D       A      Em       G       A     
e|---2---|---0---|---0---|---3---|---0---|
B|---0---|---0---|---2---|---2---|---0---|
G|---0---|---2---|---2---|---0---|---2---|
D|---2---|---2---|---0---|---0---|---2---|
A|---3---|---2---|---0---|---0---|---2---|
E|---2---|---0---|---0---|---3---|---0---|

     D       A      Em       G       A     
e|---2---|---0---|---0---|---3---|---0---|
B|---0---|---0---|---2---|---2---|---0---|
G|---0---|---2---|---2---|---0---|---2---|
D|---2---|---2---|---0---|---0---|---2---|
A|---3---|---2---|---0---|---0---|---2---|
E|---2---|---0---|---0---|---3---|---0---|
[ Tab from: http://www.guitartabs.cc/tabs/g/greenwheel/breathe_crd.html ]
HOOK
     D       D      Em       A
e|---2---|---2---|---0---|---0---|
B|---0---|---0---|---2---|---0---|
G|---0---|---0---|---2---|---2---|
D|---2---|---2---|---0---|---2---|
A|---3---|---3---|---0---|---2---|
E|---2---|---2---|---0---|---0---|

     D       D      Em       A       G      A
e|---2---|---2---|---0---|---0---|---3---|---0---|
B|---0---|---0---|---2---|---0---|---2---|---0---|
G|---0---|---0---|---2---|---2---|---0---|---2---|
D|---2---|---2---|---0---|---2---|---0---|---2---|
A|---3---|---3---|---0---|---2---|---3---|---2---|
E|---2---|---2---|---0---|---0---|---3---|---0---|

VERSE
    Em       A       Em      G       G       G
e|---0---|---0---|---0---|---3---|---3---|---3---|
B|---2---|---0---|---2---|---2---|---2---|---2---|
G|---2---|---2---|---2---|---0---|---0---|---0---|
D|---0---|---2---|---0---|---0---|---0---|---0---|
A|---0---|---2---|---0---|---3---|---3---|---3---|
E|---0---|---0---|---0---|---3---|---3---|---3---|

CHORUS
     D       A      Em       G       A     
e|---2---|---0---|---0---|---3---|---0---|
B|---0---|---0---|---2---|---2---|---0---|
G|---0---|---2---|---2---|---0---|---2---|
D|---2---|---2---|---0---|---0---|---2---|
A|---3---|---2---|---0---|---0---|---2---|
E|---2---|---0---|---0---|---3---|---0---|

     D       A      Em       G       A     
e|---2---|---0---|---0---|---3---|---0---|
B|---0---|---0---|---2---|---2---|---0---|
G|---0---|---2---|---2---|---0---|---2---|
D|---2---|---2---|---0---|---0---|---2---|
A|---3---|---2---|---0---|---0---|---2---|
E|---2---|---0---|---0---|---3---|---0---|

     D       A      Em       G       A     
e|---2---|---0---|---0---|---3---|---0---|
B|---0---|---0---|---2---|---2---|---0---|
G|---0---|---2---|---2---|---0---|---2---|
D|---2---|---2---|---0---|---0---|---2---|
A|---3---|---2---|---0---|---0---|---2---|
E|---2---|---0---|---0---|---3---|---0---|

     D       A      Em       G       A     
e|---2---|---0---|---0---|---3---|---0---|
B|---0---|---0---|---2---|---2---|---0---|
G|---0---|---2---|---2---|---0---|---2---|
D|---2---|---2---|---0---|---0---|---2---|
A|---3---|---2---|---0---|---0---|---2---|
E|---2---|---0---|---0---|---3---|---0---|

     Em     Em      Em       G       A     
e|---0---|---0---|---0---|---3---|---0---|
B|---2---|---2---|---2---|---2---|---0---|
G|---2---|---2---|---2---|---0---|---2---|
D|---0---|---0---|---0---|---0---|---2---|
A|---0---|---0---|---0---|---0---|---2---|
E|---0---|---0---|---0---|---3---|---0---|
Comments