Greenday - American Idiot Chords & Tabs

 

American Idiot Chords & Tabs

Greenday Chords & Tabs

Version: 1 Type: Tab 1 rating
1 star 2 stars 3 stars 4 stars 5 stars
comments

American Idiot Tab

American idiot
E------------------------------------------
B------------------------------------------
G---------666-------6-------------------x4
D---66---666---4---6---66------------
A---66---444---4---4---66------------
E---44-----------2-------44------------
Do wanna be………..
E------------------------------------------
B------------------------------------------
G---------666-------6-------------------
D---66---666---4---6---66------------
A---66---444---4---4---66------------
E---44-----------2-------44------------
Do wanna nation a…….
E------------------------------------------
B------------------------------------------
G---------666-------6-------------------
D---66---666---4---6---66------------
A---66---444---4---4---66------------
E---44-----------2-------44------------
And can  you hear …………
E------------------------------------------
B------------------------------------------
G---------666-------6-------------------
D---66---666---4---6---66------------
A---66---444---4---4---66------------
E---44-----------2-------44------------
The subliminal **** America
E------------------------------------------
B------------------------------------------
G---------666-------6------------------- 
D---66---666---4---6---66------------
A---66---444---4---4---66------------
E---44-----------2-------44------------

E-------------------------------------------------------------------------------------------------
B-------------------------------------------------------------------------------------------------
G---6666666-----------------8888888-----------------6666666----------------8888888     CHORUS
D---6666666---6666666---8888888---6666666---6666666---6666666---8888888
A---4444444---6666666---6666666---6666666---4444444---6666666---6666666
E-----------------4444444-----------------4444444-----------------4444444-------------

E------------------------------------------
B------------------------------------------
G---------666-------6------------------- x2
D---66---666---4---6---66------------
A---66---444---4---4---66------------
E---44-----------2-------44------------
Well maybe im ……..
E------------------------------------------
B------------------------------------------
G---------666-------6------------------- 
D---66---666---4---6---66------------
A---66---444---4---4---66------------
E---44-----------2-------44------------
Im not a part………
E------------------------------------------
B------------------------------------------
G---------666-------6------------------- 
D---66---666---4---6---66------------
A---66---444---4---4---66------------
E---44-----------2-------44------------
Now everybody 2.…………….
[ Tab from: http://www.guitartabs.cc/tabs/g/greenday/american_idiot_tab.html ]
E------------------------------------------
B------------------------------------------
G---------666-------6------------------- 
D---66---666---4---6---66------------
A---66---444---4---4---66------------
E---44-----------2-------44------------
And sing along at………………

E------------------------------------------
B------------------------------------------
G---------666-------6------------------- 
D---66---666---4---6---66------------
A---66---444---4---4---66------------
E---44-----------2-------44------------
Then u do the chorus ….

Then

E------------------------------------------
B------------------------------------------
G---------666-------6------------------- x4
D---66---666---4---6---66------------
A---66---444---4---4---66------------
E---44-----------2-------44------------

Solo 
E---------------------------------------------------------------------------
B---------------------------------------------------------------------------
G---101010101010---11---10---8---6---5----888---10--8---6---5
D-------------------------------------------------------------------------- IF U CANT DO DAT DEN GO 8889 …
A---8  8  8  8  8   8--- 9----- 8---6---4---3----666--- 8---6---4---3
E---------------------------------------------------------------------------

E-----------------------4----6-4---8-4--6--4
B---------------------4--44-----4-----4------44
G---33335(6)(6)-------------------------------
D-------------------------------------------------
A------------------------------------------------
E-------------------------------------------------

E-----------------------------------------------------------------------------------------------4 I THINK DATS RITE
B---------------------------------------------------------------------------------------------4-
G---101010101010---11---10---8---6---5----888---10--8---6---5---33335(6)(6)--
D-----------------------------------------------------------------------------------------------
A---8  8  8  8  8   8--- 9----- 8---6---4---3----666--- 8---6---4---3--------------------
E-----------------------------------------------------------------------------------------------
THEN GOES BAK 2 MAIN RIFF
E------------------------------------------
B------------------------------------------
G---------666-------6------------------- I THINK U DO IT BOUT X6 TIMES B4 SINGIN
D---66---666---4---6---66------------ND BOUT 3TIMES WEN 
A---66---444---4---4---66------------
E---44-----------2-------44------------
THEN U DO THE CHORUS THEN THE MAIN RIFF(X4)
ND THERE YOU HAV  IT I HAVE THE LYRICS BUT JUST BY THE AMERICAN IDIOT ALBUM OR IF U WANT BULLET IN A BIBLE BUT BULLET… WONT HAV THE LYRICS
K THTS IS THE EXACT WAY HE PLAYS IT IM 99.9 % SURE 

Comments