Green Jelly - Three Little Pigs Chords & Tabs

 

Three Little Pigs Chords & Tabs

Green Jelly Chords & Tabs

Version: 1 Type: Tab 0 ratings
1 star 2 stars 3 stars 4 stars 5 stars
comments

Three Little Pigs Tab

Green Jelly (feat. James Hetfield)
3 Little Pigs
Tuning: CGCFAD
Tabbed by: Emilio Graveran (emiliograveran@hotmail.com)

This is just a basic outline of the song in CGCFAD tuning.I know Im missing a few notes here and there and I know its probably not the right tuning,but I play it this way and it sounds fine.  Thanks.

pause   part where little pigs say not by the hair on my chinny chin chin
x4      how many times measure is played
20      tremolo pick note
8b      half note bend
8B      full note bend

Intro
D|--------------------------------------------------------|
A|--------------------------------------------------------|
F|--------------------------------------------------------|
C|--1--4--6--67646----------------------------------------|
G|--1--4--6--67646-x4-------------------------------------|
C|--1--4--6--67646----------------------------------------|

Verse
D|--------------------------------------------------------|
A|--------------------------------------------------------|
F|--------------------------------------------------------|
C|--1--4--6--67646----------------------------------------|
G|--1--4--6--67646-x8-------------------------------------|
C|--1--4--6--67646----------------------------------------|
             -PM-

1st Pre-Chorus
D|--------------------------------------------------------|
A|--------------------------------------------------------|
F|--------------------------------------------------------|
C|--1--4--6--67646-------1--4--6--67646-------------------|
G|--1--4--6--67646-pause-1--4--6--67646-pause-------------|
C|--1--4--6--67646-------1--4--6--67646-------------------|
             -PM-                 -PM-

Chorus
D|--------------------------------------------------------|
A|--------------------------------------------------------|
F|--------------------------------------------------------|
C|--5------6------7------8--------------------------------|
G|--5------6------7------8--------------------------------|
C|--5------6------7------8--------------------------------|
    ----------PM---------- Each Note is played 16 times.
1st Pre-Verse
[ Tab from: http://www.guitartabs.cc/tabs/g/green_jelly/three_little_pigs_tab.html ]
D|--------------------------------------------------------|
A|--------------------------------------------------------|
F|--8--11--13--13-14-13-11-13-----------------------------|
C|--8--11--13--13-14-13-11-13--x2-------------------------|
G|--6--9---11--11-12-11-9--11-----------------------------|
C|--------------------------------------------------------|

Repeat Verse

2nd Pre-Chorus
D|--------------------------------------------------------|
A|--------------------------------------------------------|
F|--------------------------------------------------------|
C|--1--4--6--67646----------------------------------------|
G|--1--4--6--67646-x4--------------------------------------
C|--1--4--6--67646----------------------------------------|
             -PM-    

Repeat Chorus
2nd Pre-Verse

D|--------------------------------------------------------|
A|--14b-17b-19b-19b-20b-19b-17b-19b--------14--17-19-20B--|
F|--------------------------------------------------------|
C|--------------------------------------------------------|
G|--------------------------------------------------------|
C|--------------------------------------------------------|
Bend all but the last notes a half step and bend the last note a whole step while tremolo picking and using a wah pedal.

Repeat Verse
Repeat 2nd Pre-Chorus
Repeat Chorus
3rd Pre-Verse is done by bass guitar
Repeat Verse (11x instead of 8x and on the twelfth time, let the first note ring out while the drummer goes crazy.As for the other effects, figure something out for yourself.)
Repeat Intro
Repeat 1st Pre-Verse


Last Chorus
D|--------------------------------------------------------|
A|--------------------------------------------------------|
F|--------------------------------------------------------|
C|--5------6------7------8------9------10------11------12-|
G|--5------6------7------8------9------10------11------12-|
C|--5------6------7------8------9------10------11------12-|
    ------------------------PM---------------------------

Outro

D|--------------------------------------------------------|
A|--------------------------------------------------------|
F|--------------------------8-5---------------------------|
C|--1---4---6---------------8-5---------------------------|
G|--1---4---6-let-ring-out--6-3---------------------------|
C|--1---4---6---------------------------------------------|




Comments