Green Jelly - Three Little Pigs Chords & Tabs

 

Three Little Pigs Chords & Tabs

Green Jelly Chords & Tabs

Version: 1 Type: Chords 0 ratings
1 star 2 stars 3 stars 4 stars 5 stars
comments

Three Little Pigs Chords

   
 
Hey this is my first tab so it might be kinda messed up. 
This is a really easy song to learn. Regular tuning i suppose. 
Good Luck! Courtney


[ Tab from: http://www.guitartabs.cc/tabs/g/green_jelly/three_little_pigs_crd.html ]
  Em     G        A     ?   A    ?
E-0------3-------0--0---0---0---0--------------------------
B 0------3-------2--2---3---2---0--------------------------
G 0------0-------2--2---3---2---0-----------------------
D-2------0-------2--2---3---2---0------------------------
A-2------2-------0--0---0---0---0--------------------------
E-0------x-------x--x---x----x--x-------------------------

Little Pig, Little pig, let me in
 
 Em     G        A     ?   ?    E
E-0------3-------0--0---0---0---0--------------------------
B 0------3-------2--2---1---0---0--------------------------
G 0------0-------2--2---1---0---1-----------------------
D-2------0-------2--2---1---0---2------------------------
A-2------2-------0--0---0---0---2-------------------------
E-0------x-------x--x---x----x--x-------------------------

Comments