Green Jelly - Three Little Pigs Chords & Tabs

 

Three Little Pigs Chords & Tabs

Green Jelly Chords & Tabs

Version: 1 Type: Bass Tab 0 ratings
1 star 2 stars 3 stars 4 stars 5 stars
comments

Three Little Pigs Bass Tab

Three Little Pigs - Green Jelly
tabbed by: ryan b

***rest for guitar/vocals (0:00 - 0:22)***

Riff A: (once) "And a big, bad , wolf!"
A-----------------------------------
E---------------------2----1-----0--

***rest for guitar/drums (0:27 - 0:32)***

Riff B: (13 times)
A---------5-(pause)--5--6--5------5--
E--4--6------------------------5-----

***rest for "Not by the hair..." (1:17 - 1:20)***

Riff B: (once)

***rest for "Not by the hair..." (1:24 - 1:26)***

Riff C: (once)
A---------------------------------------
E--22222222-22222222-33333333-33333333--

Riff D: (once)
A---------------------------------------
E--44444444-44444444-55555555-55555555--

Riff B: (14 times)
Riff C: (once)
Riff D: (once)

***rest for cool guitar solo (2:40 - 2:46)***
[ Tab from: http://www.guitartabs.cc/tabs/g/green_jelly/three_little_pigs_btab.html ]
Riff B: (12 times)
Riff C: (once)
Riff D: (once)

Riff E: (once)
A--------1 (pause)-----------------1-------
E--0--2-------------1/2\1--0--1------2--0--

Riff B: (11 times)

***rest for cool drum solo/screams/piano (4:23 - 4:42)***

Riff B: (5 times)

***rest for "Not by the hair..." (4:59 - 5:02)***

Riff B: (once)

***rest for "Not by the hair..." (5:06 - 5:08)***

Riff C: (once)
Riff D: (once)

Riff F: (once)
A---------------------------------------------------------
E--55555555-55555555-66666666-66666666-77777777-77777777--

Riff G: (once)
A---------------------------------------
E--88888888-88888888-99999999-99999999--

Riff H: (once)
A------------5-(hold 5:37 - 5:46)------------
E----4--6------------------------------4--3--

***rest for pig snorts (5:48 - 5:53)***


Comments