Green Jelly - Piata Hed Chords & Tabs

 

Piata Hed Chords & Tabs

Green Jelly Chords & Tabs

Version: 1 Type: Tab 0 ratings
1 star 2 stars 3 stars 4 stars 5 stars
comments

Piata Hed Tab

Band: Green Jelly
Song: Piņata Hed

Tabber: John Cukras
email: riffreaper@yahoo.com

tuning: normal

Riff 1:
E-----------------------------------------------------|
B-----------------------------------------------------|
G-----------------------------------------------------|
D----------------5/7-5/7----------------------2-------|
A-3-33-6-5-3-5-3-3/5-3/5-3-33-6-5-3-5-3-------2-------|
E-1-11-4-3-1-3-1---------1-11-4-3-1-3-1-0-3-2-0 x's 2-|
pm                                      . . .
[ Tab from: http://www.guitartabs.cc/tabs/g/green_jelly/piata_hed_tab.html ]
Riff 2:
E-----------------------------------------------------------------------------------------------------|
B-----------------------------------------------------------------------------------------------------|
G-----------------------------------------------------------------------------------------------------|
D---------------------------------------------2----------------------------------------------------2--|
A----------------3/5-3/5----------------------2-----------------------3/5-3/5-3-33-6-5-3-5-3-------2--|
E-1-11-4-3-1-3-1---------1-11-4-3-1-3-1-0-3-2-0 x's 3--1-11-4-3-1-3-1---------1-11-4-3-1-3-1-0-3-2-0--|
pm. .. . . . . .         . .. . . . . . . . .          . .. . . . . .

Riff 3:
E---------------------------------------------------------------------------------|
B---------------------------------------------------------------------------------|
G---------------------------------------------------------------------------------|
D----------------------------6-------7------8-------9-----------------------------|
A-5-55555-6--7-8-9-10-----------------------------------6---------5-------3-------|
E-3-33333-4--5-6-7-8----0000----0000---0000---0000------4-4444444-3-33333-1-11111-|
pm                      ....    ....   ....   ....        .......   .....   .....

Riff 1

Riff 2

Riff 3

Riff 1

Riff 4:
E---------------------------------|
B---------------------------------|
G---------------------------------|
D-666666-66666--6666-66666-666666-|
A-444444-44444--4444-44444-444444-|
E---------------------------------|

Riff 1 once

Riff 4

Riff 1 fast x's 6

Outro:
E----------------------------------|
B----------------------------------|
G----------------------------------|
D--------------------------------2-|
A-55--66--55--33-6-5-3-5-3-------2-|
E-33--44--33--11-4-3-1-3-1-0-3-2-0-|
pm                         . . .
Comments