Green Jelly - Orange Krunch Chords & Tabs

 

Orange Krunch Chords & Tabs

Green Jelly Chords & Tabs

Version: 1 Type: Tab 0 ratings
1 star 2 stars 3 stars 4 stars 5 stars
comments

Orange Krunch Tab

   
band: Green Jelly
song: orange Krunch

tabber: John Cukras
email: riffreaper@yahoo.com

tuning: normal

riff 1:   Guitar 1 Part A                     Part B                       |  Guitar 2
E------------------------------------------|-------------------------------|-----------------------------|
B------------------------------------------|-------------------------------|----------8~--6~-------------|
G------------------------------------------|-------------------------------|-----------------------------|
D------------------------------------------|---------------------------66--|--55--55---------------------|
A---5h6---3h4--------5h6---3h4-------------|----5h6---3h4--------5h6---44--|--33--33------------5---5-4--|
E-5-----5-----3-1--5-----5-----3-2-1 x's 3-|--5-----5-----3-1--5-----5-----|------------------3-3-3-3-2--|
pm                             . . .                                                          .   .

Riff 2:   A                   B                     C                      D
E---------------------|-------------------|---------------------|---------------------|
B---------------------|-------------------|---------------------|---------------------|
G---------------------|-------------------|---------------------|---------------------|
D---------------------|-------------------|---------------------|---------------------|
A-0-3/5-5/6-6---------|-0-3/5-5/6-666-5-3-|-0-3/5-5/6-6----6----|-0-3/5-5/6-----------|
E-0-1/3-3/4-4-444-333-|-0-1/3-3/4-444-3-1-|-0-1/3-3/4-4-33-4-33-|-0-1/3-3/4-3333-2222-|
pm            ... ...                                   ..   ..             .... ....

Riff 2: A , B , A , D

Riff 3:
E--------------------------------------------------|
B--------------------------------------------------|
G--------------------------------------------------|
D--------------------------------------------------|
A-3-3/6-6/5-5555-66-7-777--3-3/6-6/5-555-----------|
E-1-1/4-4/3-3333-44-5-555--1-1/4-4/3-333-33-2-1-00-|
pm                                       .. . . ..

Riff 2: C , B , C , D

Riff 1: Part A x's 2 , B
[ Tab from: http://www.guitartabs.cc/tabs/g/green_jelly/orange_krunch_tab.html ]
Riff 2: C , B , A , D

Riff 3

Riff 2: A , B , A , D

Riff 1: Part A x's 2 , B

Riff 4:
E------------------------------------------------------------------------------------------------------------|
B------------------------------------------------------------------------------------------------------------|
G------------------------------------------------------------------------------------------------------------|
D------------------------------------------------------------------------------------------------------------|
A-3-333-3-333-3-4-444-4-444-4-5-555-5-555-5-4-444-4-444-4--3-333-3-333-3-4-444-4-444-4-5-555-5-555-5-888888--|
E------------------------------------------------------------------------------------------------------------|
pm  ...   ...     ...   ...     ...   ...     ...   ...      ...   ...     ...   ...     ...   ...

Riff 5:
E-------------------------------------------------------------------------------------------------------------------|
B-------------------------------------------------------------------------------------------------------------------|
G-------------------------------------------------------------------------------------------------------------------|
D-5-----5-----5-6-----6-----6-7-----7-----7-6-----6-----6--5-----5-----5-6-----6-----6-7-----7-----7-101010---------|
A-3-----3-----3-4-----4-----4-5-----5-----5-4-----4-----4--3-----3-----3-4-----4-----4-5-----5-----5-888888---------|
E---000---000-----000---000-----000---000-----000---000------000---000-----000---000-----000---000---------  x's 4--|
pm  ...   ...     ...   ...     ...   ...     ...   ...      ...   ...     ...   ...     ...   ...

Riff 6:
E---------------------------------------------------------------------|
B---------------------------------------------------------------------|
G---------------------------------------------------------------------|
D---------------------------------------------------------------------|
A-0-3/5-5/6-6-66-555-------------0-3/5-5/6-6-66-555--0-3/5-5/4--------|
E-0-1/3-3/4-4-44-333--Riff 2: B--0-1/3-3/4-4-44-333--0-1/3-3/4-33-2-1-|
pm                                                             .. . .

If you tab them solo's please send to me :D
Comments