Green Jelly - Cereal Killer Chords & Tabs

 

Cereal Killer Chords & Tabs

Green Jelly Chords & Tabs

Version: 1 Type: Tab 0 ratings
1 star 2 stars 3 stars 4 stars 5 stars
comments

Cereal Killer Tab

   
Band: Green Jelly
Song: Cereal Killer

Tabber: John Cukras
Aim: Ebryocrusher

Tuning: normal

Riff 1:
E-------------------------------------------------------
B-------------------------------------------------------
G-------------------------------------------------------
D-------------------------------------------------------
A-9-7-5-4/9--------999-777-555-444---5--7--9--5--7--11-9
E-7-5-3-2/7 x's 7--777-555-333-222---3--5--7--3--5---9-7 x's 2
[ Tab from: http://www.guitartabs.cc/tabs/g/green_jelly/cereal_killer_tab.html ]
Riff 2: Pm's done all through : A          B
E--------------------------------------|----------------------
B--------------------------------------|----------------------
G--------------------------------------|----------------------
D--------------3/4-4/2-2/3-3/1-3-------|--22------------22----
A--------------3/4-4/2-2/3-3/1-3 x's 4-|--22-4-3--------22-4-5
E-0000000000---------------------------|--00-2-1 x's 3--00-2-3
pm..........

Muddled Part

Riff 1

Riff 2: A , B

Snap, Crackle, Pop

Riff 2: A x's 7 (under solo) , B x's 9 

Outro:
E---------------------------------
B---------------------------------
G---------------------------------
D-------------------------------22
A-55-4-5--66-5-6--77-6-7-888/---22
E-33-2-3--44-3-4--55-4-5-666/---00
Comments