Green Day - You Lied Chords & Tabs

 

You Lied Chords & Tabs

Green Day Chords & Tabs

Version: 2 Type: Tab 0 ratings
1 star 2 stars 3 stars 4 stars 5 stars
comments

You Lied Tab

by Chris S.

Intro/Verse 1
E----------------------------------------------------------->
B----------------------------------------------------------->
G----------------------------------------------------------->
D--5/6-6-6-6-6-6-6-6--5/6-6-6-6-6-6-6-6--5/6-6-6-6-6-6-6-6-->
A--5/6-6-6-6-6-6-6-6--5/6-6-6-6-6-6-6-6--5/6-6-6-6-6-6-6-6-->
E--3/4-4-4-4-4-4-4-4--3/4-4-4-4-4-4-4-4--3/4-4-4-4-4-4-4-4-->

E-------------------------------------------------------------------->
B-------------------------------------------------------------------->
G-------------------------------------------------------------------->
D--2-3-3-3-3--2-3-3-3-3--5/6-6-6-6--5/6-6-6-6--5/6-6-6-6--5/6-6-6-6-->
A--0-3-3-3-3--0-3-3-3-3--3/4-4-4-4--5/6-6-6-6--5/6-6-6-6--5/6-6-6-6-->
E--0-1-1-1-1--0-1-1-1-1--3/4-4-4-4--3/4-4-4-4--3/4-4-4-4--3/4-4-4-4-->

E-------------------------|
B-------------------------|
G-------------------------|
D--2-3-3-3-3--2-333-------|
A--0-3-3-3-3--0-333-------|
E--0-1-1-1-1--0-111--12\--|

Chorus
E-----------------------|
B-----------------------|
G--8-8-8-8-8--6-6-6-6-6-|x3 
D--8-8-8-8-8--6-6-6-6-6-|
A--6-6-6-6-6--4-4-4-4-4-|
E-----------------------|

E----------------------|
B----------------------|
G--8-8-8-8-8--6666666--|x1 
D--8-8-8-8-8--6666666--|
A--6-6-6-6-6--4444444--|
E----------------------|

Verse 2
E------------------------------------------------------------------>
B------------------------------------------------------------------>
G------------------------------------------------------------------>
D--6-6-6-6--5/6-6-6-6--5/6-6-6-6--5/6-6-6-6--5/6-6-6-6--5/6-6-6-6-->
A--4-4-4-4--5/6-6-6-6--5/6-6-6-6--5/6-6-6-6--5/6-6-6-6--5/6-6-6-6-->
E--4-4-4-4--3/4-4-4-4--3/4-4-4-4--3/4-4-4-4--3/4-4-4-4--3/4-4-4-4-->
[ Tab from: http://www.guitartabs.cc/tabs/g/green_day/you_lied_tab_ver_2.html ]
E-------------------------------------------------------------------->
B-------------------------------------------------------------------->
G-------------------------------------------------------------------->
D--2-3-3-3-3--2-3-3-3-3--5/6-6-6-6--5/6-6-6-6--5/6-6-6-6--5/6-6-6-6-->
A--0-3-3-3-3--0-3-3-3-3--3/4-4-4-4--5/6-6-6-6--5/6-6-6-6--5/6-6-6-6-->
E--0-1-1-1-1--0-1-1-1-1--3/4-4-4-4--3/4-4-4-4--3/4-4-4-4--3/4-4-4-4-->

E-------------------------|
B-------------------------|
G-------------------------|
D--2-3-3-3-3--2-333-------|
A--0-3-3-3-3--0-333-------|
E--0-1-1-1-1--0-111--12\--|

Chorus
E-----------------------|
B-----------------------|
G--8-8-8-8-8--6-6-6-6-6-|x3 
D--8-8-8-8-8--6-6-6-6-6-|
A--6-6-6-6-6--4-4-4-4-4-|
E-----------------------|

E----------------------|
B----------------------|
G--8-8-8-8-8--6666666--|x1 
D--8-8-8-8-8--6666666--|
A--6-6-6-6-6--4444444--|
E----------------------|

Solo: Guitar 2 play Verse 2 (1 time)

Solo: Guitar 1
E------------------------------------------------------------------------|x2
B---------1-1-1-1---------1-1-1-1---------1-1-1-4-4-4--------------------|
G-1-1-1-1---------4-4-4-4---------1-1-1-1-------------------2-2-2-5-5-5--|
D-----------------------------------------------------3-3-3-------------3|
A------------------------------------------------------------------------|
E------------------------------------------------------------------------|

Chorus
E-----------------------|
B-----------------------|
G--8-8-8-8-8--6-6-6-6-6-|x3 
D--8-8-8-8-8--6-6-6-6-6-|
A--6-6-6-6-6--4-4-4-4-4-|
E-----------------------|

E----------------------|
B----------------------|
G--8-8-8-8-8--6666666--|x1 
D--8-8-8-8-8--6666666--|
A--6-6-6-6-6--4444444--|
E----------------------|

Outro (Guitar 2)
E------------------------------------------------------------------|End On|
B------------------------------------------------------------------|------|
G------------------------------------------------------------------|------|
D-6-6-6-6--5/6-6-6-6--5/6-6-6-6--5/6-6-6-6--5/6-6-6-6--5/6-6-66666-|--6~--|
A-4-4-4-4--5/6-6-6-6--5/6-6-6-6--5/6-6-6-6--5/6-6-6-6--5/6-6-66666-|--6~--|
E-4-4-4-4--3/4-4-4-4--3/4-4-4-4--3/4-4-4-4--3/4-4-4-4--3/4-4-44444-|--4~--|

Outro (Guitar 1)
E-1-1---1---1----0-1---1---1---1---|
B--4------4----------4-------4-----|
G----------------------------------|
D----------------------------------|
A----------------------------------|
E----------------------------------|

Thats all!
Comments