Green Day - Worry Rock Chords & Tabs

 

Worry Rock Chords & Tabs

Green Day Chords & Tabs

Version: 3 Type: Tab 0 ratings
1 star 2 stars 3 stars 4 stars 5 stars
comments

Worry Rock Tab

-----------------------------------------------------------------------------
WORRY ROCK- Green Day
-----------------------------------------------------------------------------
I got tired of all the wrong tabs of this song, so here you go 

^: palm mute
Standard Tuning: eBGDAE

Intro: play each note 8x
e|---------------------------------|
B|---------------------------------|
G|-9---4-------9-------------------|
D|-9---4---7---9---7---2---7---9---|
A|-7---2---7---7---7---2---7---9---|
E|---------5-------5---0---5---7---|

verse: play each note 8x 
e|---------------------------------|
B|---------------------------------|
G|-----4---------------------------|
D|-2---4---7---2---7---2---7---9---|
A|-2---2---7---2---7---2---7---9---|
E|-0-------5---0---5---0---5---7---|

Chorus
e|-------------------------------------------------|
B|-------------------------------------------------|
G|-666-666-66--------------------------------------|
D|-666-666-66--666-666-66--777-777-77--222-222-22--|
A|-444-444-44--666-666-66--777-777-77--222-222-22--|
E|-------------444-444-44--555-555-55--000-000-00--|

e:-------------------------------------------------|
B:-------------------------------------------------|
G:-666-666-66--------------------------4-----------|
D:-666-666-66--666-666-66--444-444-44--4-hold last note
A:-444-444-44--666-666-66--444-444-44--2-----------|
E:-------------444-444-44--222-222-22--------------|

verse
e|-----------------------|-0--0-0----|-----------------|
B|-----------------------|-0--0-0----|-----------------|
G|-----4-----------------|-2--2--1----|-----------------|
D|-2---4---7---2---7---2-|-2--2--2----|-9-9-9-9-9-9-9-9-|
A|-2---2---7---2---7---2-|-0--0--2----|-9-9-9-9-9-9-9-9-|
E|-0-------5---0---5---0-|-------0----|-7-7-7-7-7-7-7-7-|
  (--play each note 8x--)		^ ^ ^ ^ ^ ^ ^ ^

solo
e|---------------------------------------------------------|
B|---------------------------------------------------------|
G|---------------------------------------------------------|
D|---------------------------------------------------------|
A|--------0--2-----2--6--4--2--0--4--2-0-2-----0--4--2--0--|
E|-0----4-------4--------------------------4---------------|
[ Tab from: http://www.guitartabs.cc/tabs/g/green_day/worry_rock_tab_ver_3.html ]
e:--------------------------0-0-0-0-0---0-0-0-/0-0--0-0----|
B:--------------------------5-5-5-5-5-4-4-5-5-/7-7--5-5--0-|
G:---------------------------------------------------------|
D:---------------------------------------------------------|
A:-2-------------------------------------------------------|
E:----4--0-5-5-5-5-4-4-2-----------------------------------|

e:-0-0-0-0-0-----0--0-0-0-0-0---0--0-0-0-0----0-0-0-0-0-0-0-|
B:-2-2-0-2-0---0/2--0-0-0-0-0-0/2--2-2-2-0--0/2-0-0-0-0-0-0-|
G:-----------1-----------------------------1----------------|
D:----------------------------------------------------------|
A:----------------------------------------------------------|
E:----------------------------------------------------------|

e:---0-0-0-0-0-0-0-0------------|
B:-0/2-2-2-2-2-0-0-0--0/7\5\4\--|
G:------------------------------|
D:------------------------------|
A:------------------------------|
E:------------------------------|

Chorus
e|-------------------------------------------------|
B|-------------------------------------------------|
G|-666-666-66--------------------------------------|
D|-666-666-66--666-666-66--777-777-77--222-222-22--|
A|-444-444-44--666-666-66--777-777-77--222-222-22--|
E|-------------444-444-44--555-555-55--000-000-00--|

e:-------------------------------------------------|
B:-------------------------------------------------|
G:-666-666-66--------------------------4-----------|
D:-666-666-66--666-666-66--444-444-44--4-hold last note
A:-444-444-44--666-666-66--444-444-44--2-----------|
E:-------------444-444-44--222-222-22--------------|

verse: play each note 8x
e|----------------------------------------|
B|----------------------------------------|
G|--hold for 1st part---------------------|
D|------------------------7---2---7---9---|
A|------------------------7---2---7---9---|
E|------------------------5---0---5---7---|

verse	
			   (-play 3x, 3rd time no palm muting-)		
e|-------------------------|--0--0-0----|-----------------|
B|-------------------------|--0--0-0----|-----------------|
G|-----4-------------------|--2--2--1----|-----------------|
D|-2---4---7---2---7---2---|--2--2--2----|-9-9-9-9-9-9-9-9-|
A|-2---2---7---2---7---2---|--0--0--2----|-9-9-9-9-9-9-9-9-|
E|-0-------5---0---5---0---|--------0----|-7-7-7-7-7-7-7-7-|
  (--play each note 8x--)	           ^ ^ ^ ^ ^ ^ ^ ^
Comments