Green Day - Worry Rock Chords & Tabs

 

Worry Rock Chords & Tabs

Green Day Chords & Tabs

Version: 2 Type: Tab 0 ratings
1 star 2 stars 3 stars 4 stars 5 stars
comments

Worry Rock Tab

Green Day
Worry Rock
Tabbed By:JoeHotPants182

Intro/verse
|--------------------------------------------------
|--------------------------------------------------
|-9-9-9-9-9-9-9-9-4-4-4-4-4-4-4-4------------------
|-9-9-9-9-9-9-9-9-4-4-4-4-4-4-4-4-7-7-7-7-7-7-7-7--
|-7-7-7-7-7-7-7-7-2-2-2-2-2-2-2-2-7-7-7-7-7-7-7-7--
|---------------------------------5-5-5-5-5-5-5-5--
 
---------------------------------------------------
---------------------------------------------------
-9-9-9-9-9-9-9-9-----------------------------------
-9-9-9-9-9-9-9-9-7-7-7-7-7-7-7-7-2-2-2-2-2-2-2-2---
-7-7-7-7-7-7-7-7-7-7-7-7-7-7-7-7-2-2-2-2-2-2-2-2---
-----------------5-5-5-5-5-5-5-5-0-0-0-0-0-0-0-0---
                                Play This after first 
                                you've played the 
                                verse 3 times or preety
                                much to make it easyer
                                be for the solo and at
                                the very end of the song
---------------------------------|-0--0--12-------------|
---------------------------------|-5--5--9--------------|
---------------------------------|-6--5--9--------------|
-7-7-7-7-7-7-7-7-9-9-9-9-9-9-9-9-|-7--7--9--------------|
-7-7-7-7-7-7-7-7-9-9-9-9-9-9-9-9-|---------------------|
-5-5-5-5-5-5-5-5-7-7-7-7-7-7-7-7-|---------------------|

Chorus
|----------------------------------------------------------
|----------------------------------------------------------
|-6-6-6-6-6-6-6-6------------------------------------------
|-6-6-6-6-6-6-6-6-6-6-6-6-6-6-6-6-7-7-7-7-7-7-7-7-2-2-2-2--
|-4-4-4-4-4-4-4-4-6-6-6-6-6-6-6-6-7-7-7-7-7-7-7-7-2-2-2-2--
|-----------------4-4-4-4-4-4-4-4-5-5-5-5-5-5-5-5-0-0-0-0--
  
---------------------------------------------------------
---------------------------------------------------------
---------6-6-6-6-6-6-6-6---------------------------------
-2-2-2-2-6-6-6-6-6-6-6-6-6-6-6-6-6-6-6-6-4-4-4-4-4-4-4-4-
-2-2-2-2-4-4-4-4-4-4-4-4-6-6-6-6-6-6-6-6-4-4-4-4-4-4-4-4-
-0-0-0-0-----------------4-4-4-4-4-4-4-4-2-2-2-2-2-2-2-2-
[ Tab from: http://www.guitartabs.cc/tabs/g/green_day/worry_rock_tab_ver_2.html ]
--------------------------------------------------------|
--------------------------------------------------------|
-4-4-4-4-4-4-4-4----------------------------------------|
-4-4-4-4-4-4-4-4----------------------------------------|
-2-2-2-2-2-2-2-2----------------------------------------|
--------------------------------------------------------|

Solo
|---------------------------------------------------------
|---------------------------------------------------------
|---------------------------------------------------------
|---------------------------------------------------------
|-----------2-----2--6--4--2--0--4--2-0-0--------4--2--0--
|-0----4-5-----4--------------------------4---5-----------

--------------------------0-0-0-0-0---0-0-0-/0-0--0-0----
--------------------------5-5-5-5-5-4-4-5-5-/7-7--5-5--0--
----------------------------------------------------------
----------------------------------------------------------
-2--------------------------------------------------------
----4--0-5-5-5-5-4-4-2------------------------------------

-0-0-0-0-0-----0--0-0-0-0-0---0--0-0-0-0----0-0-0-0-0-0-0--
-2-2-0-2-0---0/2--0-0-0-0-0-0/2--2-2-2-0--0/2-0-0-0-0-0-0-/
-----------1-----------------------------1-----------------
-----------------------------------------------------------
-----------------------------------------------------------
-----------------------------------------------------------

---0-0-0-0-0-0-0-------------------------------------------
-2-2-2-2-2-0-0-0--7-5-5---4-2-0----------------------------
--------------------6-6-4-4-2-0----------------------------
-----------------------------------------------------------
-----------------------------------------------------------
-----------------------------------------------------------

Intro/Verse X2
Chorus X1
Verse X1                        7   2
Solo X1                         7   2
verse(the first part before the 5...0 u play it here then
                 that part) X 1
Verse(play that 2nd part like you do before the solo except
     3 times but play the regular stuff 2 times before that
     part)
 
Comments