Green Day - Working Class Hero Chords & Tabs

 

Working Class Hero Chords & Tabs

Green Day Chords & Tabs

Version: 5 Type: Tab 0 ratings
1 star 2 stars 3 stars 4 stars 5 stars
comments

Working Class Hero Tab

           Song: Working Class Hero
         Artist: Green Day
Original Artist: John Lennon
         Tuning: Standard (eBGDAE)


I was learning this song for a show we have coming up, I am the lead
guitarist and between looking at the tabs to this song and watching 
Green Day play it live I noticed Billie Joe plays the solo with octaves
rather than single notes like all the solo tabs on this site say.
 
So to help out any perfectionists out there I transcribed the solo by 
ear into octaves so you will be playing the solo correctly.

This is my first tab I've made so any feedback on it will be appreciated,
any corrections you can email me at:
trevor_mcneil@hotmail.com

enjoy the tab
Rate & Comment
[ Tab from: http://www.guitartabs.cc/tabs/g/green_day/working_class_hero_tab_ver_5.html ]
e|------------------------------|------------------------------------|
B|------------------------------|------------------------------------|
G|--4---6-7---9/11/9---7/6--4~--|--4---6-7---9/11/9---7/9---11-------|
D|------------------------------|------------------------------------|
A|--2---4-5---7/9/-7---5/4--2~--|--2---4-5---7/9/-7---5/7----9-------|
E|------------------------------|------------------------------------|


e|---------------------------|---------------------------------------|
B|---------------------------|---------------------------------------|
G|--16~---14-11~---9~--7-4---|--7--7--7--7--6-----6--6---------------|
D|---------------------------|---------------------------9--7--9~----|
A|--14~---12-10~---7~--5-2---|--5--5--5--5--4-----4--4---------------|
E|---------------------------|---------------------------7--5--7~----|
Comments