Green Day - Who Wrote Holden Caulfield Chords & Tabs

 

Who Wrote Holden Caulfield Chords & Tabs

Green Day Chords & Tabs

Version: 7 Type: Tab 0 ratings
1 star 2 stars 3 stars 4 stars 5 stars
comments

Who Wrote Holden Caulfield Tab

   
-------------------------------------------------------------------------------
                             WHO WROTE HOLDEN CAULFIELD-Green Day
-------------------------------------------------------------------------------
Tabbed by: Thedboy

| /  slide up
| \  slide down
| h  hammer-on
| p  pull-off
| ~  vibrato
| +  harmonic
| x  Mute note
| s  stop chord immediately after you’ve played it.

Tuning: Down Half a Step

Verse (x2):
e------------------------------------------------------------------------------|
B—-----------------------------------------------------------------------------|
G-999-999-999-999-777-777-777-777-666-666-666-666-444-444-444-444-9~-----------|
D-999-999-999-999-777-777-777-777-666-666-666-666-444-444-444-444-9~-----------|
A-777-777-777-777-555-555-555-555-444-444-444-444-222-222-222-222-7~-----------|
E------------------------------------------------------------------------------|
  **  **  **  **  **  **  **  **  **  **  **  **  **  **  **  **
Note: on the second repeat, don’t play the x799xx at the end, and the x244xx chords are 
without the palm mute.

Pre-Chorus (x2): (and it hasn’t been the first time…)

e---------------------------------------------------------------------------|
B—--------------------------------------------------------------------------|
G-------------22222222222---------------------------------------------------|
D-44444444444-22222222222---------------------------------------------------|
A-44444444444-00000000000---------------------------------------------------|
E-22222222222---------------------------------------------------------------|
[ Tab from: http://www.guitartabs.cc/tabs/g/green_day/who_wrote_holden_caulfield_tab_ver_7.html ]
Chorus (x4): (there’s a boy who fogs his world…)
e-00000----------------------------------------------------------------------|
B—00000----------------------------------------------------------------------|
G-11111-------22222----------------------------------------------------------|
D-22222-44444-22222-22222----------------------------------------------------|
A-22222-44444-00000-22222----------------------------------------------------|
E-00000-22222-------00000----------------------------------------------------|

Verse 2 (x2):
e--------------------------------------------------------2~------------------|
B—----------------------------------------------------------2----------------|
G-999-999-999-999-777-777-777-777-666-666-666-444-444-4~---------------------|
D-999-999-999-999-777-777-777-777-666-666-666-444-444------------------------|
A-777-777-777-777-555-555-555-555-444-444-444-222-222------------------------|
E----------------------------------------------------------------------------|
  **  **  **  **  **  **  **  **  **  **  **  **  **

Note: on the second repeat, don’t play that bit at the end, and the final chord x244xx 
played without the palm mute.

Interlude part 1:
e---------------------------------------------------------------------------|
B—--------------------------------------------------------------------------|
G-9~-999-7~-777-6~-666-4~-444-99999-11-11-11-11-1313131313-1515151515-------|
D-9~-999-7~-777-6~-666-4~-444-xxxxx-x-x-x-x--x--x-x-x-x-x--x-x-x-x-x--------|
A-7~-777-5~-555-4~-444-2~-222-77777-9-9-9-9--9--1111111111-1313131313-------|
E---------------------------------------------------------------------------|

Interlude part 2 (x2):
e---------------------------------------------------------------------------|
B—--------------------------------------------------------------------------|
G---7-9-777-777-777-666-666-666-666-444-444-444-444-------------------------|
D-2-7-9-777-777-777-666-666-666-666-444-444-444-444-------------------------|
A-2-5-7-555-555-555-444-444-444-444-222-222-222-222-------------------------|
E-0-------------------------------------------------------------------------|
  * * * **  **  **  **  **  **  **  **  **  **  **

wait for the drum fill and then play the pre chorus

The last two choruses are easy, just the same as the main chorus.

End on:
E-0s-|
B-0s-|
G-1s-|
D-2s-|
A-2s-|
E-0s-|
==============================================================================================
Comments