Green Day - Who Wrote Holden Caulfield Chords & Tabs

 

Who Wrote Holden Caulfield Chords & Tabs

Green Day Chords & Tabs

Version: 5 Type: Bass Tab 0 ratings
1 star 2 stars 3 stars 4 stars 5 stars
comments

Who Wrote Holden Caulfield Bass Tab

Well, this is  Who Wrote Holden Caulfield, i worked this out purely by ear, so it
may not be 100% right.
If you have any suggestions send me a comment ;)

Intro

G:-------------------------------------------------------------------------|
D:-------------------------------------------------------------------------|
A:--2s7---7777777777777777555555555555555544444444444444442222222222222222-|
E:-------------------------------------------------------------------------|


Pre-Chorus

G:---------------------------------------------------------------------|
D:---------------------------------------------------------------------|
A:-----------------------------------------------------------------5h7-|
E:--2-2-2222-22-222-5-5-5555-55-555-2-2-2222-22-222-5-5-5555-55-5h7----|

Chorus
[ Tab from: http://www.guitartabs.cc/tabs/g/green_day/who_wrote_holden_caulfield_btab_ver_5.html ]
G:----------------------------------|
D:----------------------------------|
A:--7-7-77----------5-5-55----------|
E:---------7-77-777--------5-55-555-|

Verse

G:------------------------------------------------------------------|
D:------------------------------------------------------------------|
E:--7777777777777777555555555555555544444444444444442222222222222222|
A:------------------------------------------------------------------|

Solo

G:---------------5------4--------|
D:--------------5------4---------|
A:-----5h7-5-5-5----4-4--2-2-2-2-|
E:--0----------------------------|

Post-Solo Chorus

G:---------------------------------|
D:---------------------------------|
A:--7--------------5-5-55----------|
E:---------7--------------5-55-555-|


Intro
Pre-Chorus
Chorus x4
Verse x2
Pre-Chorus
Chorus x4
Solo x4
Post Solo Chorus x4
Chorus x4
Comments