Green Day - When I Come Around Chords & Tabs

 

When I Come Around Chords & Tabs

Green Day Chords & Tabs

Version: 5 Type: Tab 0 ratings
1 star 2 stars 3 stars 4 stars 5 stars
comments

When I Come Around Tab

1Group: Green Day
2Song Name: When I Come Around
4Release: ??
4Submitted By: David
5Email: Rem870ExpD@aol.com
6Song Text: When I Come Around
Green Day
Dookie

I've seen so many Wrong versions but this one is correct

 intro
|------------|------------------------------------
|------------|------------------------------------
|------------|-----6--------8--4--4-4-------------
|------4-----|-6-6-6-6-6--8-8--4--4-4-4-4---------main riff
|--4-4-4-4-4-|-4-4-4-4-4--6-6--2--2-2-2-2---------
|--2-2-2-2-2-|-*-*---*-*--*-----------------------
   * *   * *

|--------------------------------------
|--------------------------------------
|------------------4-4-4-4-4-4-4-4-----
|--6-6-6-6-6-6-6-6-4-4-4-4-4-4-4-4-----
|--6-6-6-6-6-6-6-6-2-2-2-2-2-2-2-2-----
|--4-4-4-4-4-4-4-4---------------------
[ Tab from: http://www.guitartabs.cc/tabs/g/green_day/when_i_come_around_tab_ver_5.html ]
|--------------------------------------
|--------------------------------------
|------------------4-4-4-4-4-----------
|--6-6-6-6-6-6-6-6-4-4-4-4-4-----------
|--6-6-6-6-6-6-6-6-2-2-2-2-2--2p1------
|--4-4-4-4-4-4-4-4---------------------

|------------------------------------------------------
|------------------------------------------------------
|-11------13------11-----13--11-11--11-11-11-11-13-----
|---11--11--11--11--11---11--11-11--11-11-11-11-11-----
|------9-------9-------9--9---9--9---9--9--9--9--9-----
|------------------------------------------------------

|---------------------------------
|---------------------------------
|-11-11-11-11-13--8-8-8-8/9-10\---
|-11-11-11-11-11--8-8-8-8/9-10\---
|--9--9--9--9--9------------------
|---------------------------------

 * palm mute
 / slide up
 \ slide down

submit: Send
Comments