Green Day - When I Come Around Chords & Tabs

 

When I Come Around Chords & Tabs

Green Day Chords & Tabs

Version: 3 Type: Tab 12 ratings
1 star 2 stars 3 stars 4 stars 5 stars
comments

When I Come Around Tab

easy song by the legendary Green Day from their lengendary album,
Dookie
tuned half a step down or just lower all the frets by 1 on regular 
tuning...i'm doin this b/c the tab on the top 50 is a little off
and i want to make sure u guys got the right thing
im not including the strumming but u can figure it out  its not 
extremly hard


e|--------------------------------------------
b|-------------------8------------------------
g|----------7-7-7----9----5-------------------
d|-5-5-5----7-7-7----9----5-------------------
a|-5-5-5----5-5-5----7----3-------------------
E|-3-3-3--------------------------------------
P.M.--      ---
Play that over and over for the verse   dont forget the 3rd chord is
minor  dont forget the 8
[ Tab from: http://www.guitartabs.cc/tabs/g/green_day/when_i_come_around_tab_ver_3.html ]
then the bridge...
e|----------------------------------------------------
b|----------------------------------------------------
g|-----------------5-5-5-5-5-5-5-5-----------------5--
d|-7-7-7-7-7-7-7-7-5-5-5-5-5-5-5-5-7-7-7-7-7-7-7-7-5--
a|-7-7-7-7-7-7-7-7-3-3-3-3-3-3-3-3-7-7-7-7-7-7-7-7-3--
E|-5-5-5-5-5-5-5-5-----------------5-5-5-5-5-5-5-5----

solo...
e|-----------------------------------------------
b|-8-8-10-10-8-8-10-8-8-8-10-10-10-8-8------8----
g|--7-7--7--7-7------7----------------7--8/9-9---
d|--------------------------------------------10-
a|-----------------------------------------------
E|-----------------------------------------------

well thats about it  easy song but awesome  i salute green day as 
possibly the best band ever  e-mail- blnk182modenaf50@aol.com  lata
enjoy!
Comments