Green Day - When I Come Around Chords & Tabs

 

When I Come Around Chords & Tabs

Green Day Chords & Tabs

Version: 2 Type: Tab 3 ratings
1 star 2 stars 3 stars 4 stars 5 stars
comments

When I Come Around Tab


*When I come around*

-this song is really easy and fun to play-

****EXAMPLE*****
main riff guitar 1 (1x)
|------------------------------------|      
|------------------------------------| 
|--------------7------9---5~~~~5-----| 
|-5---5----7-7-7-77-9-9-9-5~~~~5-7-7-| 
|-5-5-5-55-5-5-5-55-7-7-7-3~~~~3-5-5-| 
|-3-3-3-33---------------------------| 
    .   .. . .   .. .   .        . .
        /\       /\
listen for these. Its hard to hear them but their there

...=Palm mute (if u don’t know how to do it, your stupid)
/\ \/= up/ down strokes
X= string muting

intro 1x  (never played again in song)
|-----|------------------------------|
|-----|------------------------------|
|---x-|--------------7------9---5~~~-|
|-x-x-|-----5----7-7-7-77-9-9-9-5~~~-|
|-x---|-5-5-5-55-5-5-5-55-7-7-7-3~~~-|
|-x---|-3-3-3-33---------------------|
 \/ /\  . .   .. . . . .. .   .

main riff guitar 1 (1x)
|------------------------------------|      
|------------------------------------| 
|--------------7------9---5~~~~5-----| 
|-5---5----7-7-7-77-9-9-9-5~~~~5-7-7-| 
|-5-5-5-55-5-5-5-55-7-7-7-3~~~~3-5-5-| 
|-3-3-3-33---------------------------| 
    .   .. . .   .. .   .        . .

verse guitar 1 (7x)
|------------------------------------|      
|------------------------------------| 
|--------------7------9---5~~~~5-----| 
|-----5-55-7-7-7-77-9-9-9-5~~~~5-7-7-| 
|-5-5-5-33-5-5-5-55-7-7-7-3~~~~3-5-5-| 
|-3-3-3------------------------------| 
  . .   .. . .   .. .   .        . .
chorus guitar 1 (1x) half time speed
|---------------------------------|      
|---------------------------------| 
|---------------------------------| 
|-2-2-2-2-2-2-2-2-5-5-5-5-5-5-5-5-| 
|-0-0-0-0-0-0-0-0-3-3-3-3-3-3-3-3-| 
|---------------------------------|
[ Tab from: http://www.guitartabs.cc/tabs/g/green_day/when_i_come_around_tab_ver_2.html ]
|-------------------------------|      
|-------------------------------| 
|-------------------------------| 
|-2-2-2-2-2-2-2-2-5-5-5-5-5~~~~-| 
|-0-0-0-0-0-0-0-0-3-3-3-3-3~~~~-| 
|-------------------------------| 
main riff (1x)
|------------------------------------|      
|------------------------------------| 
|--------------7------9---5~~~~5-----| 
|-5---5----7-7-7-77-9-9-9-5~~~~5-7-7-| 
|-5-5-5-55-5-5-5-55-7-7-7-3~~~~3-5-5-| 
|-3-3-3-33---------------------------| 
    .   .. . .   .. .   .        . .
verse guitar 1 (7x)
|------------------------------------|      
|------------------------------------| 
|--------------7------9---5~~~~5-----| 
|-----5-55-7-7-7-77-9-9-9-5~~~~5-7-7-| 
|-5-5-5-33-5-5-5-55-7-7-7-3~~~~3-5-5-| 
|-3-3-3------------------------------| 
  . .   .. . .   .. .   .        . .
chorus guitar 1 (1x) half time speed
|---------------------------------|      
|---------------------------------| 
|---------------------------------| 
|-2-2-2-2-2-2-2-2-5-5-5-5-5-5-5-5-| 
|-0-0-0-0-0-0-0-0-3-3-3-3-3-3-3-3-| 
|---------------------------------|

|-------------------------------|      
|-------------------------------| 
|-------------------------------| 
|-2-2-2-2-2-2-2-2-5-5-5-5-5~~~~-| 
|-0-0-0-0-0-0-0-0-3-3-3-3-3~~~~-| 
|-------------------------------| 

main riff guitar 1 (1x)
|------------------------------------|      
|------------------------------------| 
|--------------7------9---5~~~~5-----| 
|-5---5----7-7-7-77-9-9-9-5~~~~5-7-7-| 
|-5-5-5-55-5-5-5-55-7-7-7-3~~~~3-5-5-| 
|-3-3-3-33---------------------------| 
    .   .. . .   .. .   .        . .
verse guitar 1 (3x)
|------------------------------------|      
|------------------------------------| 
|--------------7------9---5~~~~5-----| 
|-----5-55-7-7-7-77-9-9-9-5~~~~5-7-7-| 
|-5-5-5-33-5-5-5-55-7-7-7-3~~~~3-5-5-| 
|-3-3-3------------------------------| 
  . .   .. . .   .. .   .        . .


solo play after main riff and 1x of verse!!!!
|-3-------5-------3-3---5~~~-|      
|---3---3---3---3-3-3---3~~~-|
|-----0-------0---0-0-0-0~~~-|      
|----------------------------|
|----------------------------|      
|----------------------------|

|-3-3-33-3-33-5-55-5-33-3-33---------------------------|      
|-3-3-33-3-33-3-33-3-33-3-33----5-5---5---/(15)--------|
|-0-0-00-0-00-0-00-0-00-0-00-/4-4-4-4/4----------------|
|------------------------------------------------------|
|------------------------------------------------------|      
|------------------------------------------------(12)\-|

chorus guitar 1 (1x) half time speed
|---------------------------------|      
|---------------------------------| 
|---------------------------------| 
|-2-2-2-2-2-2-2-2-5-5-5-5-5-5-5-5-| 
|-0-0-0-0-0-0-0-0-3-3-3-3-3-3-3-3-| 
|---------------------------------|

|-------------------------------|      
|-------------------------------| 
|-------------------------------| 
|-2-2-2-2-2-2-2-2-5-5-5-5-5~~~~-| 
|-0-0-0-0-0-0-0-0-3-3-3-3-3~~~~-| 
|-------------------------------|

main riff guitar 1 (1x)
|------------------------------------|      
|------------------------------------| 
|--------------7------9---5~~~~5-----| 
|-5---5----7-7-7-77-9-9-9-5~~~~5-7-7-| 
|-5-5-5-55-5-5-5-55-7-7-7-3~~~~3-5-5-| 
|-3-3-3-33---------------------------| 
    .   .. . .   .. .   .        . .
verse guitar 1 (2x)
|------------------------------------|      
|------------------------------------| 
|--------------7------9---5~~~~5-----| 
|-----5-55-7-7-7-77-9-9-9-5~~~~5-7-7-| 
|-5-5-5-33-5-5-5-55-7-7-7-3~~~~3-5-5-| 
|-3-3-3------------------------------|
ending (1x)
|-------------------------------|      
|-------------------------------| 
|--------------7------9---5~~~~-| 
|-----5-55-7-7-7-77-9-9-9-5~~~~-| 
|-5-5-5-33-5-5-5-55-7-7-7-3~~~~-| 
|-3-3-3-------------------------|
Comments