Green Day - When I Come Around Chords & Tabs

 

When I Come Around Chords & Tabs

Green Day Chords & Tabs

Version: 11 Type: Tab 0 ratings
1 star 2 stars 3 stars 4 stars 5 stars
comments

When I Come Around Tab

By:

e|-----------------------------
B|-----------------------------
G|--------6-6-6--8-8-8--4-4-4--
D|-4-4-4--6-6-6--8-8-8--4-4-4--  That Times 10
A|-4-4-4--4-4-4--6-6-6--2-2-2--
E|-2-2-2-----------------------

(no time to search the world around...)

e|--------------------------------------------------------------------
B|--------------------------------------------------------------------
G|--------------------------------------------------------------------
D|-2-2-2-2-2-2-2-2--5-5-5-5-5-5-5-5--2-2-2-2-2-2-2-2--5-5-5-5---------
A|-0-0-0-0-0-0-0-0--3-3-3-3-3-3-3-3--0-0-0-0-0-0-0-0--3-3-3-3---------
E|--------------------------------------------------------------------
(When I come around..)

e|-----------------------------
B|-----------------------------
G|--------6-6-6--8-8-8--4-4-4--
D|-4-4-4--6-6-6--8-8-8--4-4-4--  That Times 10
A|-4-4-4--4-4-4--6-6-6--2-2-2--
E|-2-2-2-----------------------
(you Cant go forceing something if it just aint right...)
[ Tab from: http://www.guitartabs.cc/tabs/g/green_day/when_i_come_around_tab_ver_11.html ]
e|--------------------------------------------------------------------
B|--------------------------------------------------------------------
G|--------------------------------------------------------------------
D|-2-2-2-2-2-2-2-2--5-5-5-5-5-5-5-5--2-2-2-2-2-2-2-2--5-5-5-5---------
A|-0-0-0-0-0-0-0-0--3-3-3-3-3-3-3-3--0-0-0-0-0-0-0-0--3-3-3-3---------
E|--------------------------------------------------------------------
(When I come around..)
e|-----------------------------
B|-----------------------------
G|--------6-6-6--8-8-8--4-4-4--
D|-4-4-4--6-6-6--8-8-8--4-4-4--  That Times 2
A|-4-4-4--4-4-4--6-6-6--2-2-2--
E|-2-2-2-----------------------

SOLO

e|-3-------5-------3-3---5-3-3-3-3-5-5-5------------------------------
B|---3---3---3---3-----3---3-3-3-3-3-3-3------------------------------
G|-----0-------0-------------------------5-8-3-5----------------------
D|--------------------------------------------------------------------
A|--------------------------------------------------------------------
E|--------------------------------------------------------------------

e|------------------------------------------------------------
B|------------------------------------------------------------
G|------------------------------------------------------------
D|-2-2-2-2-2-2-2-2--5-5-5-5-5-5-5-5--2-2-2-2-2-2-2-2--5-5-5-5-
A|-0-0-0-0-0-0-0-0--3-3-3-3-3-3-3-3--0-0-0-0-0-0-0-0--3-3-3-3-
E|------------------------------------------------------------
(When I come around..)

e|-----------------------------
B|-----------------------------
G|--------6-6-6--8-8-8--4-4-4--
D|-4-4-4--6-6-6--8-8-8--4-4-4--  Repeat till end
A|-4-4-4--4-4-4--6-6-6--2-2-2--
E|-2-2-2-----------------------
Comments