Green Day - When I Come Around Chords & Tabs

 

When I Come Around Chords & Tabs

Green Day Chords & Tabs

Version: 10 Type: Tab 0 ratings
1 star 2 stars 3 stars 4 stars 5 stars
comments

When I Come Around Tab

Tabbed By: Mike Lash,hawker489@aol.com
Standrd Tuning

Intro
e------------------------------
B------------------------------
G------------------------------
D----------------6-------8--4--
A-----4------4-4-4-4-4---6--2--
E-2-2-2-2-2--------------------
  * *   * *  * *   * * 
[ Tab from: http://www.guitartabs.cc/tabs/g/green_day/when_i_come_around_tab_ver_10.html ]
or

e------------------------------
B------------------------------
G------------------------------
D----------------6-6-6---8--4--
A-----4-4-4--4-4-4-4-4---6--2--
E-2-2-2-2-2--------------------
  * *        * *

*=palm mute
This is the 100% correct version
of the Intro in 2 ways!
Comments