Green Day - When I Come Around Perfect Chords & Tabs

 

When I Come Around Perfect Chords & Tabs

Green Day Chords & Tabs

Version: 1 Type: Bass Tab 2 ratings
1 star 2 stars 3 stars 4 stars 5 stars
comments

When I Come Around Perfect Bass Tab

   
##################################################################################
# This file is the author's own work and represents their interpretation of the  #
# song. You may only use this file for private study, scholarship, or research.  #
##################################################################################
Greenday: When I Come Around Perfect


NOTE: I want to give thanks to the member 'King_For_A_Day' for helping me out with it!

Standerd E A D G Tuning


INTRO
|--------------------------------------------------------3-4-3---|
|----------------------------------------------------4-4-------4-|
|----------------------------------------------------------------|
|----------------------------------------------------------------|
[ Tab from: http://www.guitartabs.cc/tabs/g/green_day/when_i_come_around_perfect_btab.html ]
VERSE I
{=============================10x================================}
|--------3-4-3-6-------------------------------------------------|
|4---4-4-----------------3-4-3-----------------------------------|
|----------------4---4-4-------4/6---6---------------------------|
|--------------------------------------------7-----------7-------|

CHORUS I
|----------------------------------------------------------------|
|----------------------------------------------------------------|
|----------------------------1-/-2---2---2---2---2---4---2-------|
|4---4---4---4---4---4---4-----------------------------------2---|

|----------------------------------------------------------------|
|----------------------------------------------------------------|
|--------------------------------2---2---2---2---2-------2\1-----|
|4---4---4---4---4---4---4---4-----------------------------------|

VERSE II (same as VERSE I)

CHORUS II (same as CHORUS I)

GUITAR SOLO (same as Verses I & II but only 4x)

CHORUS III (same as CHORUS I & II)

OUTRO (same as GUITAR SOLO)


All the others are wrong! This way is exactly how Mike Dirnt plays it
Comments