Green Day - When I Come Around (correct) Chords & Tabs

 

When I Come Around (correct) Chords & Tabs

Green Day Chords & Tabs

Version: 1 Type: Bass Tab 1 rating
1 star 2 stars 3 stars 4 stars 5 stars
comments

When I Come Around (correct) Bass Tab

   
WHEN I COME AROUND (Bassline)

Bassist: Mike Dirnt

Transcribed by Justin Lomiglio

Tuning:(Eb Ab Db Gb)

 Intro
 Tempo=98
 4/4

Intro
-----------------------------------------------------------------------------4h5--4---
----------------------------------------------------------------------5-5-------------
--------------------------------------------------------------------------------------
--------------------------------------------------------------------------------------

Main Riff
------------4h5---------------------------------------2h4-----------------------------
---5--5-5---------2--------------4h5p4----------2--2----------------------------------
--------------------------5--5-5--------5--------------------3-----3-3-3-5-5-5--------
--------------------------------------------------------------------------------------

[ Tab from: http://www.guitartabs.cc/tabs/g/green_day/when_i_come_around_correct_btab.html ]
Last time right before the chorus
-------------4h5---------------------------------------2h4----------------------------
----5--5-5--------2--------------4h5p4---------2--2-----------------------------------
--------------------------5--5-5--------5---------------------3--------/12------------
--------------------------------------------------------------------------------------



Chorus
--------------------------------------------------------------------------------------
---------------------------------------------------5h7-5------------------------------
---0--0--0--0--0--0--0--2--3--3--3--3--3----------------7/----------------------------
--------------------------------------------------------------------------------------


--------------------------------------------------------5p4---------------------------
--------------------------------------------------------------------------------------
---0--0--0--0--0--0--0--2--3--3--3--3--3----------------------------------------------
--------------------------------------------------------------------------------------

Listen to the song for the right timming. 
Email any comments or questions to me at Bassguitarboy4@yahoo.com
Comments