Green Day - When I Come Around Chords & Tabs

 

When I Come Around Chords & Tabs

Green Day Chords & Tabs

Version: 14 Type: Bass Tab 0 ratings
1 star 2 stars 3 stars 4 stars 5 stars
comments

When I Come Around Bass Tab

   
------------------------------------------------------------------
             GREEN DAY - WHEN I COME AROUND (DOOKIE) 
------------------------------------------------------------------

Tabbed by: kevin_gd
Email: kevin.shadow@hotmail.com 
Tuning standard


The guitar begins

Intro        (x2) 
G|----3h4p3-/-----3h4p3---------------3h4------------|
D|---4------/-4-44----------3h4p3--------------------|
A|----------/-----------4-44------6-6----2--2-2-22---|
E|----------/----------------------------------------|

verse                                   (x8)
G|-----3h4p3---------------3h4-----------------------|
D|-4-44----------3h4p3-------------------------------|
A|-----------4-44------6-6----2--2-2-22--------------|
E|---------------------------------------------------|

Chorus
G|-----------------------------------------------4p3-|
D|-------------------4h6p4---------------------------|
A|---------2-2-2-2-2------6-------------222222222----|
E|-4-4-4-4-(X2)-------------4-4-4-4-(x2)-------------|

verse                                   (x8)
G|-----3h4p3---------------3h4-----------------------|
D|-4-44----------3h4p3-------------------------------|
A|-----------4-44------6-6----2--2-2-22--------------|
E|---------------------------------------------------|
[ Tab from: http://www.guitartabs.cc/tabs/g/green_day/when_i_come_around_btab_ver_14.html ]
Chorus
G|-----------------------------------------------4p3-|
D|-------------------4h6p4---------------------------|
A|---------2-2-2-2-2------6-------------222222222----|
E|-4-4-4-4-(X2)-------------4-4-4-4-(x2)-------------|

Bridge                                  (x2)
G|-----3h4p3---------------3h4-----------------------|
D|-4-44----------3h4p3-------------------------------|
A|-----------4-44------6-6----2--2-2-22--------------|
E|---------------------------------------------------|

Guitar Solo                             (x2)
G|-----3h4p3---------------3h4-----------------------|
D|-4-44----------3h4p3-------------------------------|
A|-----------4-44------6-6----2--2-2-22--------------|
E|---------------------------------------------------|

Chorus
G|-----------------------------------------------4p3-|
D|-------------------4h6p4---------------------------|
A|---------2-2-2-2-2------6-------------222222222----|
E|-4-4-4-4-(X2)-------------4-4-4-4-(x2)-------------|

Outro                                   (x4)
G|-----3h4p3---------------3h4-----------------------|
D|-4-44----------3h4p3-------------------------------|
A|-----------4-44------6-6----2--2-2-22--------------|
E|---------------------------------------------------|


| h  hammer-on
| p  pull-off

thanks for watching
if you like it, leave a comment and vote for the tab.
if you donīt like it,leave a comment making any correction or whatever that you wanna say.


Comments