Green Day - When I Come Around Chords & Tabs

 

When I Come Around Chords & Tabs

Green Day Chords & Tabs

Version: 10 Type: Bass Tab 0 ratings
1 star 2 stars 3 stars 4 stars 5 stars
comments

When I Come Around Bass Tab

   
Song: When I Come Around
Artist: Green Day
Album: Dookie
Tabbed By: Scott Sherman
Tune: E to Eb

Intro
G---4h5p4--|
D-55-----7-|
A----------|
E----------|

Verse-9x
G-----4h5p4----------------2h3---------|
D-5-55-----5----4h5p4----22------------|
A-----------5-55-----5-5------3-333-33-|
E--------------------------------------|

Pre-Chorus
G-----4h5p4----------------2h3-----------|
D-5-55-----5----4h5p4----22--------------|
A-----------5-55-----5-5------3-33333333-|
E----------------------------------------|
[ Tab from: http://www.guitartabs.cc/tabs/g/green_day/when_i_come_around_btab_ver_10.html ]
Chorus  X=Stop
G-------------------------------------------------------X-----4h5p4-|
D-------------------------5h7p5-------------------------X-----------|
A------------------------------7------------------------X-----------|
E-5-555-555-555578-888-888------5-555-555-555578-8888888X-----------|

THEN Play Verse-9x, Pre-Chorus, Chorus, thenů
THEN Play Verse-3x, Pre-Chorus, Chorus, Verse-3x, thenů

Outro
G-----4h5p4----------------2h3--|
D-5-55-----5----4h5p4----22-----|
A-----------5-55-----5-5------3-|
E-------------------------------|
END
Comments or corrections mail me at shermdog17@yahoo.com
Check out my band at www.geocities.com/thecause_ifanything/punk.html
Comments