Green Day - Whatsername Chords & Tabs

 

Whatsername Chords & Tabs

Green Day Chords & Tabs

Version: 6 Type: Tab 0 ratings
1 star 2 stars 3 stars 4 stars 5 stars
comments

Whatsername Tab

   
13.Whatsername

Tuning:Standard

Intro/Verse:
   D5     B5  x2
e|------------| 
B|------------| 
G|-7------4---| 
D|-7------4---|Palm Muted 
A|-5------2---|
E|------------|

Chorus:
   G5  D5  F#5 B5 A5  x3  G5  A5
e|--------------------------------| 
B|--------------------------------| 
G|-----7-------4--2---------------| 
D|-5---7---4---4--2-------5---7---| Palm Muted
A|-5---5---4---2--0-------5---7---|
E|-3-------2--------------3---5---|

Riff 1:
   D          B         x2
e|----------------------|
B|-3--5/7--3--0--2--3---|
G|----------------------|
D|----------------------|
A|----------------------|
E|----------------------| 

Bridge:
   D                                 B5                        x2
e|-------------------------------------------------------------|
B|-----2h3---3-----2h3---3-----2h3---4-4-4-4-4-4-4-4-4-4-4-4---|
G|---2---------2-----------2---------4-4-4-4-4-4-4-4-4-4-4-4---|
D|-0-------0-----0-----0-----0-------4-4-4-4-4-4-4-4-4-4-4-4---|
A|-----------------------------------2-2-2-2-2-2-2-2-2-2-2-2---|
E|-------------------------------------------------------------|

Riff 2:
   G5  D5  F#5 B5 A5  x2
e|--------------------|
B|--------------------|
G|-----7-------4--2---|
D|-5---7---4---4--2---|
A|-5---5---4---2--0---|
E|-3-------2----------|
[ Tab from: http://www.guitartabs.cc/tabs/g/green_day/whatsername_tab_ver_6.html ]
Solo:
    G5                  D5                F#5         B5      A5       x2
e|---------------------------------------------------------------------|
B|---------------------------------------------------------------------|
G|--7-7-7--6-6--7-7-7-------7--6-6--7-6-2-3-3-3-3-6-3-4-4-4-4-6-4-6-7--|
D|----------------------7-7--------------------------------------------|
A|---------------------------------------------------------------------|
E|---------------------------------------------------------------------|


Interlude:
   (Remember, whatever...)
   G5  D5  A5  D5  x2
e|-----------------|
B|-----------------|
G|-----7-------7---|
D|-5---7---7---7---|
A|-5---5---7---5---|
E|-3-------5-------|

(The regrets are useless...)
   G5  D5  F#5 B5 A5  x3  G5  A5
e|--------------------------------| 
B|--------------------------------| 
G|-----7-------4--2---------------| 
D|-5---7---4---4--2-------5---7---| 
A|-5---5---4---2--0-------5---7---|
E|-3-------2--------------3---5---|

End:
   G5  A5  D5  x3  G5  A5
e|-------------------------|
B|-------------------------|
G|---------7---------------|
D|-5---7---7-------5---7---|
A|-5---7---5-------5---7---|
E|-3---5-----------3---5---| 


Song Structure:

Intro x2(Palm Muted)
Verse x2(Palm Muted)
Chorus(Palm Muted)
Intro x2 with riff 1
Verse x2(Palm Muted) (Guitar 2 strums chords) 
Chorus(Palm Muted)
Bridge
Riff 2 with Solo
Interlude
Riff 2 Chords
End
Intro with riff 1 on second repeat
Comments