Green Day - Whatsername Chords & Tabs

 

Whatsername Chords & Tabs

Green Day Chords & Tabs

Version: 3 Type: Tab 0 ratings
1 star 2 stars 3 stars 4 stars 5 stars
comments

Whatsername Tab

Its all palm muted

e -----------------------------------------------|
b -----------------------------------------------|
g -----7-----------------------------------------|
d 5----7--x8-4------9-----5----------------------|
a 5-x8-5-----4-x8---9-x4--5-x4-------------------|
e 3----------2------7-----7----------------------|

after this there is a lil bit that goes
[ Tab from: http://www.guitartabs.cc/tabs/g/green_day/whatsername_tab_ver_3.html ]
e ----------------------------------------------------|
b 3-5/7-3-0-3-2  x2 ----------------------------------|
g ----------------------------------------------------|
d ----------------------------------------------------|
a ----------------------------------------------------|
e ----------------------------------------------------|

there is something else here (otherwise known as the rest of the song) but i dont know wot it is

solo ( this took me a while to get)
e ------------------------------------------------------------------|
b ------------------------------------------------------------------|
g 7-7-7--6-6--7-7-7-------7--6-6--7-6-2-3-3-3-3-6-3-4-4-4-4-6-4-6-7-|
d ----------------------77------------------------------------------|
a ------------------------------------------------------------------|
e-------------------------------------------------------------------|

this song rocks

rate me plz

if u want to email me its just_cos_u_dont_like_me@hotmail.com
Comments