Green Day - Welcome To Paradise Chords & Tabs

 

Welcome To Paradise Chords & Tabs

Green Day Chords & Tabs

Version: 5 Type: Tab 0 ratings
1 star 2 stars 3 stars 4 stars 5 stars
comments

Welcome To Paradise Tab

Tablatura de NICO M.  (nicokbbl@hotmail.com)


Artista: Green Day
Cancion: Welcome To Paradise
Album: Dookie (1994)


Intro
1|---------------------------------------------------------|
2|---------------------------------------------------------|
3|--9-9-9-9-9-7-7------9-9-9-9-9-7-7-----------------------|x2
4|--9-9-9-9-9-7-7-7-7--9-9-9-9-9-7-7-7-7-------------------|
5|--7-7-7-7-7-5-5-7-7--7-7-7-7-7-5-5-7-7-------------------|
6|----------------5-5----------------5-5-------------------|




1|---------------------------------------------------------|
2|---------------------------------------------------------|
3|--9-9-9-9-9-7-7-7-7-7--9x--9-9x--9-9x--9-9-9-9-9---------|
4|--9-9-9-9-9-7-7-7-7-7--9x--9-9x--9-9x--9-9-9-9-9---------|
5|--7-7-7-7-7-5-5-5-5-5--7x--7-7x--7-7x--7-7-7-7-7---------|
6|---------------------------------------------------------|

    Dear mother,
    Can you hear me whining?


1|---------------------------------------------------------|
2|---------------------------------------------------------|
3|--9-9-9-9-9-7-7-7-7-7-5-5-5-5-9-9--9-9-9-9---------------|
4|--9-9-9-9-9-7-7-7-7-7-5-5-5-5-9-9--9-9-9-9---------------|
5|--7-7-7-7-7-5-5-5-5-5-3-3-3-3-7-7--7-7-7-7---------------|
6|---------------------------------------------------------|

    It's been three whole weeks
    Since that I have left your home

1|---------------------------------------------------------|
2|---------------------------------------------------------|
3|--9-9-9-9-9-7-7-7-7-7--9x--9-9x--9-9x--9-9-9-9-9---------|
4|--9-9-9-9-9-7-7-7-7-7--9x--9-9x--9-9x--9-9-9-9-9---------|
5|--7-7-7-7-7-5-5-5-5-5--7x--7-7x--7-7x--7-7-7-7-7---------|
6|---------------------------------------------------------|

    This sudden fear has left me trembling


1|--------------------------------------------------------------------|
2|--------------------------------------------------------------------|
3|--9-9-9-9-9-7-7-7-7-7-5-5-5-5-9-9--9-9-9-9--5-5-5-5-9-9--9-9-9-9----|
4|--9-9-9-9-9-7-7-7-7-7-5-5-5-5-9-9--9-9-9-9--5-5-5-5-9-9--9-9-9-9----|
5|--7-7-7-7-7-5-5-5-5-5-3-3-3-3-7-7--7-7-7-7--3-3-3-3-7-7--7-7-7-7----|
6|--------------------------------------------------------------------|

   Cause now it seems that I am out here on my own
   And I'm feeling so alone


1|---------------------------------------------------------|
2|---------------------------------------------------------|
3|--9-9-7-9--7-7-5-7--5-5-3-5-4----------------------------|x3
4|--9-9-7-9--7-7-5-7--5-5-3-5-4----------------------------|
5|--7-7-7-7--5-5-5-5--3-3-3-3-2----------------------------|
6|---------------------------------------------------------|

(Opcion de Segunda Guitarra) (Option Second Guitar)

1|---------------------------------------------------------|
2|--5-5-0-5-3-3-0-3-2-2-0-2-1------------------------------|
3|---------------------------------------------------------|
4|---------------------------------------------------------|
5|---------------------------------------------------------|
6|---------------------------------------------------------|
   


   Pay attention to the cracked streets
   And the broken homes
   Some call it the slums
   
   Some call it nice
   I want to take you through


   ..........................  


   a wasteland I like to call
   my home
   Welcome To....


1|---------------------------------------------------------|
2|---------------------------------------------------------|
3|--9-9-9-9-9-7-7------9-9-9-9-9-7-7-----------------------|
4|--9-9-9-9-9-7-7-7-7--9-9-9-9-9-7-7-7-7-------------------|
5|--7-7-7-7-7-5-5-7-7--7-7-7-7-7-5-5-7-7-------------------|
6|----------------5-5----------------5-5-------------------|

   ...Paradise

1|---------------------------------------------------------|
2|---------------------------------------------------------|
3|--9-9-9-9-9-7-7-7-7-7--9x--9-9x--9-9x--9-9-9-9-9---------|
4|--9-9-9-9-9-7-7-7-7-7--9x--9-9x--9-9x--9-9-9-9-9---------|
5|--7-7-7-7-7-5-5-5-5-5--7x--7-7x--7-7x--7-7-7-7-7---------|
6|---------------------------------------------------------|


    A gunshot rings out at the station

1|---------------------------------------------------------|
2|---------------------------------------------------------|
3|--9-9-9-9-9-7-7-7-7-7-5-5-5-5-9-9--9-9-9-9---------------|
4|--9-9-9-9-9-7-7-7-7-7-5-5-5-5-9-9--9-9-9-9---------------|
5|--7-7-7-7-7-5-5-5-5-5-3-3-3-3-7-7--7-7-7-7---------------|
6|---------------------------------------------------------|


    Another urchin snaps and left dead on his own

1|---------------------------------------------------------|
2|---------------------------------------------------------|
3|--9-9-9-9-9-7-7-7-7-7--9x--9-9x--9-9x--9-9-9-9-9---------|
4|--9-9-9-9-9-7-7-7-7-7--9x--9-9x--9-9x--9-9-9-9-9---------|
5|--7-7-7-7-7-5-5-5-5-5--7x--7-7x--7-7x--7-7-7-7-7---------|
6|---------------------------------------------------------|


    It makes me wonder why I'm still here


1|--------------------------------------------------------------------|
2|--------------------------------------------------------------------|
3|--9-9-9-9-9-7-7-7-7-7-5-5-5-5-9-9--9-9-9-9--5-5-5-5-9-9--9-9-9-9----|
4|--9-9-9-9-9-7-7-7-7-7-5-5-5-5-9-9--9-9-9-9--5-5-5-5-9-9--9-9-9-9----|
5|--7-7-7-7-7-5-5-5-5-5-3-3-3-3-7-7--7-7-7-7--3-3-3-3-7-7--7-7-7-7----|
6|--------------------------------------------------------------------|


   For some strange reason it's now
   Feeling like my home
   And I'm never gonna go

[ Tab from: http://www.guitartabs.cc/tabs/g/green_day/welcome_to_paradise_tab_ver_5.html ]
1|---------------------------------------------------------|
2|---------------------------------------------------------|
3|--9-9-7-9--7-7-5-7--5-5-3-5-4----------------------------|x3
4|--9-9-7-9--7-7-5-7--5-5-3-5-4----------------------------|
5|--7-7-7-7--5-5-5-5--3-3-3-3-2----------------------------|
6|---------------------------------------------------------|


(Opcion de Segunda Guitarra) (Option Second Guitar)

1|---------------------------------------------------------|
2|--5-5-0-5-3-3-0-3-2-2-0-2-1------------------------------|
3|---------------------------------------------------------|
4|---------------------------------------------------------|
5|---------------------------------------------------------|
6|---------------------------------------------------------|


    Pay attention to the cracked streets
    And the broken homes
    Some call it slums
    Some call it nice
    I want to take you through
    a wasteland I like to call
    my home
    
    Welcome To... 


1|---------------------------------------------------------|
2|---------------------------------------------------------|
3|--9-9-9-9-9-7-7------9-9-9-9-9-7-7-----------------------|x2
4|--9-9-9-9-9-7-7-7-7--9-9-9-9-9-7-7-7-7-------------------|
5|--7-7-7-7-7-5-5-7-7--7-7-7-7-7-5-5-7-7-------------------|
6|----------------5-5----------------5-5-------------------|

   ...Paradise

(Bajo) (Bass) 
1|---------------------------------------------------------|
2|---------------------------------------------------------|
3|---------------------------------------------------------|x13
4|---------------------------------------------------------|
5|-----7-----6-----5-----4---------------------------------|
6|--8-8-8-7-7-7-6-6-6-5-5-5--------------------------------|

(solo De Guitarra) (Guitar Solo)

1|-----6-----5-----4-----3---------------------------------|
2|---------------------------------------------------------|
3|--7-7-7-6-6-6-5-5-5-4-4-4--------------------------------|x10
4|---------------------------------------------------------|
5|---------------------------------------------------------|
6|---------------------------------------------------------|




1|---------------------------------------------------------|
2|---------------------------------------------------------|
3|--9-9-9-9-9-7-7-7-7-7--9x--9-9x--9-9x--9-9-9-9-9---------|
4|--9-9-9-9-9-7-7-7-7-7--9x--9-9x--9-9x--9-9-9-9-9---------|
5|--7-7-7-7-7-5-5-5-5-5--7x--7-7x--7-7x--7-7-7-7-7---------|
6|---------------------------------------------------------|

  Dear mother,
  Can you hear me laughing


1|---------------------------------------------------------|
2|---------------------------------------------------------|
3|--9-9-9-9-9-7-7-7-7-7-5-5-5-5-9-9--9-9-9-9---------------|
4|--9-9-9-9-9-7-7-7-7-7-5-5-5-5-9-9--9-9-9-9---------------|
5|--7-7-7-7-7-5-5-5-5-5-3-3-3-3-7-7--7-7-7-7---------------|
6|---------------------------------------------------------|


  It's been six whole months since
  Since that I have left your home


1|---------------------------------------------------------|
2|---------------------------------------------------------|
3|--9-9-9-9-9-7-7-7-7-7--9x--9-9x--9-9x--9-9-9-9-9---------|
4|--9-9-9-9-9-7-7-7-7-7--9x--9-9x--9-9x--9-9-9-9-9---------|
5|--7-7-7-7-7-5-5-5-5-5--7x--7-7x--7-7x--7-7-7-7-7---------|
6|---------------------------------------------------------|


   It makes me wonder why I'm still here


1|--------------------------------------------------------------------|
2|--------------------------------------------------------------------|
3|--9-9-9-9-9-7-7-7-7-7-5-5-5-5-9-9--9-9-9-9--5-5-5-5-9-9--9-9-9-9----|
4|--9-9-9-9-9-7-7-7-7-7-5-5-5-5-9-9--9-9-9-9--5-5-5-5-9-9--9-9-9-9----|
5|--7-7-7-7-7-5-5-5-5-5-3-3-3-3-7-7--7-7-7-7--3-3-3-3-7-7--7-7-7-7----|
6|--------------------------------------------------------------------|


  For some strange reason it's now
  Feeling like my home
  And I'm never gonna go


1|---------------------------------------------------------|
2|---------------------------------------------------------|
3|--9-9-7-9--7-7-5-7--5-5-3-5-4----------------------------|x3
4|--9-9-7-9--7-7-5-7--5-5-3-5-4----------------------------|
5|--7-7-7-7--5-5-5-5--3-3-3-3-2----------------------------|
6|---------------------------------------------------------|


(Opcion de Segunda Guitarra) (Option Second Guitar)

1|---------------------------------------------------------|
2|--5-5-0-5-3-3-0-3-2-2-0-2-1------------------------------|
3|---------------------------------------------------------|
4|---------------------------------------------------------|
5|---------------------------------------------------------|
6|---------------------------------------------------------|


    Pay attention to the cracked streets
    And the broken homes
    Some call it the slums
    Some call it nice
    I want to take you through
    a wasteland I like to call
    my home
    Welcome To... 



1|-----------------------------------------------------------|
2|-----------------------------------------------------------|
3|--9-9-9-9-9-7-7------9-9-9-9-9-7-7------9-9-9-9-9-7-7------|
4|--9-9-9-9-9-7-7-7-7--9-9-9-9-9-7-7-7-7--9-9-9-9-9-7-7-7-7--|
5|--7-7-7-7-7-5-5-7-7--7-7-7-7-7-5-5-7-7--7-7-7-7-7-5-5-7-7--|
6|----------------5-5----------------5-5----------------5-5--|


   ...Paradise         Oh, Paradise...


1|---------------------------------------------------------|
2|---------------------------------------------------------|
3|--9-9-9-9-9-7-7------------------------------------------|
4|--9-9-9-9-9-7-7-7----------------------------------------|
5|--7-7-7-7-7-5-5-7----------------------------------------|
6|----------------5----------------------------------------|
Comments