Green Day - Welcome To Paradise Chords & Tabs

 

Welcome To Paradise Chords & Tabs

Green Day Chords & Tabs

Version: 2 Type: Tab 0 ratings
1 star 2 stars 3 stars 4 stars 5 stars
comments

Welcome To Paradise Tab

Song: Welcome to Paradise
Artist: Green Day
Album: Dookie
Tabbed by: Christian / silent_warrior_@hotmail.com

Tuning: Standard (EADGBE)

x - Mute string
\ - Slide down

Pretty much self explanatory, except for some rests here and there. Just listen to 
the song.

Intro
|---------------------|
|---------------------|
|-8-x-8-8-x-6-6-6-----| x4
|-8-x-8-8-x-6-6-6-6-6-|
|-6-x-6-6-x-4-4-4-6-6-|
|-----------------4-4-|

Verse
|------------------------------------------|
|------------------------------------------|
|-8-8-8-8-8-6-6-6-6-6--8-x-8-8-x-8-8-8-8-8-| x1
|-8-8-8-8-8-6-6-6-6-6--8-x-8-8-x-8-8-8-8-8-|
|-6-6-6-6-6-4-4-4-4-4--6-x 6-6-x-6-6-6-6-6-|
|------------------------------------------|


|--------------------------------------|
|--------------------------------------|
|-8-8-8-8-8-6-6-6-6-6----------6-6-6-6-| x1
|-8-8-8-8-8-6-6-6-6-6--2-2-4-4-6-6-6-6-|
|-6-6-6-6-6-4-4-4-4-4--2-2-4-4-4-4-4-4-|
|----------------------0-0-2-2---------|


|------------------------------------------|
|------------------------------------------|
|-8-8-8-8-8-6-6-6-6-6--8-x-8-8-x-8-8-8-8-8-| x1
|-8-8-8-8-8-6-6-6-6-6--8-x-8-8-x-8-8-8-8-8-|
|-6-6-6-6-6-4-4-4-4-4--6-x 6-6-x-6-6-6-6-6-|
|------------------------------------------|


|-----------------------------------------------------------|
|-----------------------------------------------------------|
|-8-8-8-8-8-6-6-6-6-6----------6-6-6-6----------6-6-6-6-6-6-| x1
|-8-8-8-8-8-6-6-6-6-6--2-2-4-4-6-6-6-6--2-2-4-4-6-6-6-6-6-6-|
|-6-6-6-6-6-4-4-4-4-4--2-2-4-4-4-4-4-4--2-2-4-4-4-4-4-4-4-4-|
|----------------------0-0-2-2----------0-0-2-2-------------|

Chorus
|------------------------------------------------------------------------------|
|------------------------------------------------------------------------------|
|---------------------2-2-2-2-2-6-6-6-6-6----------------------6-6-6-6-6-6-6-6-| x1
|-2-2-2-2-2-6-6-6-6-6-2-2-2-2-2-6-6-6-6-6--2-2-2-2-2-6-6-6-6-6-6-6-6-6-6-6-6-6-|
|-2-2-2-2-2-6-6-6-6-6-0-0-0-0-0-4-4-4-4-4--2-2-2-2-2-6-6-6-6-6-4-4-4-4-4-4-4-4-|
|-0-0-0-0-0-4-4-4-4-4----------------------0-0-0-0-0-4-4-4-4-4-----------------|


|-----------------------------------------|
|-----------------------------------------|
|---------------------2-2-2-2-2-6-6-6-6-6-| x1
|-2-2-2-2-2-6-6-6-6-6-2-2-2-2-2-6-6-6-6-6-|
|-2-2-2-2-2-6-6-6-6-6-0-0-0-0-0-4-4-4-4-4-|
|-0-0-0-0-0-4-4-4-4-4---------------------|

Fill
|---------------|
|---------------|
|-------------4-| x1
|-2-2--2-2--2-4-|
|-2-2--2-2--2-2-|
|-0-0--0-0--0---|


|---------------------|
|---------------------|
|-8-x-8-8-x-6-6-6-----| x2
|-8-x-8-8-x-6-6-6-6-6-|
|-6-x-6-6-x-4-4-4-6-6-|
|-----------------4-4-|

Verse
|------------------------------------------|
|------------------------------------------|
|-8-8-8-8-8-6-6-6-6-6--8-x-8-8-x-8-8-8-8-8-| x1
|-8-8-8-8-8-6-6-6-6-6--8-x-8-8-x-8-8-8-8-8-|
|-6-6-6-6-6-4-4-4-4-4--6-x 6-6-x-6-6-6-6-6-|
|------------------------------------------|


|--------------------------------------|
|--------------------------------------|
|-8-8-8-8-8-6-6-6-6-6----------6-6-6-6-| x1
|-8-8-8-8-8-6-6-6-6-6--2-2-4-4-6-6-6-6-|
|-6-6-6-6-6-4-4-4-4-4--2-2-4-4-4-4-4-4-|
|----------------------0-0-2-2---------|


|------------------------------------------|
|------------------------------------------|
|-8-8-8-8-8-6-6-6-6-6--8-x-8-8-x-8-8-8-8-8-| x1
|-8-8-8-8-8-6-6-6-6-6--8-x-8-8-x-8-8-8-8-8-|
|-6-6-6-6-6-4-4-4-4-4--6-x 6-6-x-6-6-6-6-6-|
|------------------------------------------|

[ Tab from: http://www.guitartabs.cc/tabs/g/green_day/welcome_to_paradise_tab_ver_2.html ]
|-----------------------------------------------------------|
|-----------------------------------------------------------|
|-8-8-8-8-8-6-6-6-6-6----------6-6-6-6----------6-6-6-6-6-6-| x1
|-8-8-8-8-8-6-6-6-6-6--2-2-4-4-6-6-6-6--2-2-4-4-6-6-6-6-6-6-|
|-6-6-6-6-6-4-4-4-4-4--2-2-4-4-4-4-4-4--2-2-4-4-4-4-4-4-4-4-|
|----------------------0-0-2-2----------0-0-2-2-------------|

Chorus
|------------------------------------------------------------------------------|
|------------------------------------------------------------------------------|
|---------------------2-2-2-2-2-6-6-6-6-6----------------------6-6-6-6-6-6-6-6-| x1
|-2-2-2-2-2-6-6-6-6-6-2-2-2-2-2-6-6-6-6-6--2-2-2-2-2-6-6-6-6-6-6-6-6-6-6-6-6-6-|
|-2-2-2-2-2-6-6-6-6-6-0-0-0-0-0-4-4-4-4-4--2-2-2-2-2-6-6-6-6-6-4-4-4-4-4-4-4-4-|
|-0-0-0-0-0-4-4-4-4-4----------------------0-0-0-0-0-4-4-4-4-4-----------------|


|-----------------------------------------|
|-----------------------------------------|
|---------------------2-2-2-2-2-6-6-6-6-6-| x1
|-2-2-2-2-2-6-6-6-6-6-2-2-2-2-2-6-6-6-6-6-|
|-2-2-2-2-2-6-6-6-6-6-0-0-0-0-0-4-4-4-4-4-|
|-0-0-0-0-0-4-4-4-4-4---------------------|

Fill
|---------------|
|---------------|
|-------------4-| x1
|-2-2--2-2--2-4-|
|-2-2--2-2--2-2-|
|-0-0--0-0--0---|


|---------------------|    |-----|
|---------------------|    |-----|
|-8-x-8-8-x-6-6-6-----| x4 |-----|
|-8-x-8-8-x-6-6-6-6-6-|    |--4--| <- Let ring this note (x1)
|-6-x-6-6-x-4-4-4-6-6-|    |--4--|
|-----------------4-4-|    |--2--|

Bridge (gradually release palm mute)
|---------------------------------|
|---------------------------------|
|-4-4-4-4-7-7-7-7-6-6-6-6-5-5-5-5-| x8
|-4-4-4-4-7-7-7-7-6-6-6-6-5-5-5-5-|
|-2-2-2-2-5-5-5-5-4-4-4-4-3-3-3-3-|
|---------------------------------|
PM-------------------------------

Verse
|------------------------------------------|
|------------------------------------------|
|-8-8-8-8-8-6-6-6-6-6--8-x-8-8-x-8-8-8-8-8-| x1
|-8-8-8-8-8-6-6-6-6-6--8-x-8-8-x-8-8-8-8-8-|
|-6-6-6-6-6-4-4-4-4-4--6-x 6-6-x-6-6-6-6-6-|
|------------------------------------------|

|--------------------------------------|
|--------------------------------------|
|-8-8-8-8-8-6-6-6-6-6----------6-6-6-6-| x1
|-8-8-8-8-8-6-6-6-6-6--2-2-4-4-6-6-6-6-|
|-6-6-6-6-6-4-4-4-4-4--2-2-4-4-4-4-4-4-|
|----------------------0-0-2-2---------|

|------------------------------------------|
|------------------------------------------|
|-8-8-8-8-8-6-6-6-6-6--8-x-8-8-x-8-8-8-8-8-| x1
|-8-8-8-8-8-6-6-6-6-6--8-x-8-8-x-8-8-8-8-8-|
|-6-6-6-6-6-4-4-4-4-4--6-x 6-6-x-6-6-6-6-6-|
|------------------------------------------|

|-----------------------------------------------------------|
|-----------------------------------------------------------|
|-8-8-8-8-8-6-6-6-6-6----------6-6-6-6----------6-6-6-6-6-6-| x1
|-8-8-8-8-8-6-6-6-6-6--2-2-4-4-6-6-6-6--2-2-4-4-6-6-6-6-6-6-|
|-6-6-6-6-6-4-4-4-4-4--2-2-4-4-4-4-4-4--2-2-4-4-4-4-4-4-4-4-|
|----------------------0-0-2-2----------0-0-2-2-------------|


Chorus
|------------------------------------------------------------------------------|
|------------------------------------------------------------------------------|
|---------------------2-2-2-2-2-6-6-6-6-6----------------------6-6-6-6-6-6-6-6-| x1
|-2-2-2-2-2-6-6-6-6-6-2-2-2-2-2-6-6-6-6-6--2-2-2-2-2-6-6-6-6-6-6-6-6-6-6-6-6-6-|
|-2-2-2-2-2-6-6-6-6-6-0-0-0-0-0-4-4-4-4-4--2-2-2-2-2-6-6-6-6-6-4-4-4-4-4-4-4-4-|
|-0-0-0-0-0-4-4-4-4-4----------------------0-0-0-0-0-4-4-4-4-4-----------------|


|-----------------------------------------|
|-----------------------------------------|
|---------------------2-2-2-2-2-6-6-6-6-6-| x1
|-2-2-2-2-2-6-6-6-6-6-2-2-2-2-2-6-6-6-6-6-|
|-2-2-2-2-2-6-6-6-6-6-0-0-0-0-0-4-4-4-4-4-|
|-0-0-0-0-0-4-4-4-4-4---------------------|


|---------------|
|---------------|
|-------------4-| x1
|-2-2--2-2--2-4-|
|-2-2--2-2--2-2-|
|-0-0--0-0--0---|

End
|---------------------|     |------|
|---------------------|     |------|
|-8-x-8-8-x-6-6-6-----| x4  |--\8--| x1
|-8-x-8-8-x-6-6-6-6-6-|     |--\8--|
|-6-x-6-6-x-4-4-4-6-6-|     |--\6--|
|-----------------4-4-|     |------|
Comments