Green Day - Welcome To Paradise Chords & Tabs

 

Welcome To Paradise Chords & Tabs

Green Day Chords & Tabs

Version: 10 Type: Tab 0 ratings
1 star 2 stars 3 stars 4 stars 5 stars
comments

Welcome To Paradise Tab

This song is really easy to play, especially if your used to playing a lot
of power chords like i am. I made this version so that you don't have to
change your tuning to some weird shit, like the other versions make you do,
and you can just stick to good ol' standard tuning. Also this is my first
tab so forgive me if i make some little mistake. Enjoy :P

If you have any questions/comments, just e-mail me at jesussoriano87@yahoo.com

/ = slide from and to
ex.(|--3/8--|)
slide from 3, to 8

x = palm mute

Intro
|---------------------|
|---------------------|
|-8-x-8-8-x-6-6-6-----| 4x
|-8-x-8-8-x-6-6-6-6-6-|
|-6-x-6-6-x-4-4-4-6-6-|
|-----------------4-4-|

Verse
|------------------------------------------|
|------------------------------------------|
|-8-8-8-8-8-6-6-6-6-6--8-x-8-8-x-8-8-8-8-8-| 1x
|-8-8-8-8-8-6-6-6-6-6--8-x-8-8-x-8-8-8-8-8-|
|-6-6-6-6-6-4-4-4-4-4--6-x 6-6-x-6-6-6-6-6-|
|------------------------------------------|


|---------------------------------------|
|---------------------------------------|
|-8-8-8-8-8-6-6-6-6-6-------------------| 1x
|-8-8-8-8-8-6-6-6-6-6--4-4-4-4--8-8-8-8-|
|-6-6-6-6-6-4-4-4-4-4--4-4-4-4--8-8-8-8-|
|----------------------2-2-2-2--6-6-6-6-|


|------------------------------------------|
|------------------------------------------|
|-8-8-8-8-8-6-6-6-6-6--8-x-8-8-x-8-8-8-8-8-| 1x
|-8-8-8-8-8-6-6-6-6-6--8-x-8-8-x-8-8-8-8-8-|
|-6-6-6-6-6-4-4-4-4-4--6-x 6-6-x-6-6-6-6-6-|
|------------------------------------------|


|------------------------------------------------------------|
|------------------------------------------------------------|
|-8-8-8-8-8-6-6-6-6-6----------------------------------------| 1x
|-8-8-8-8-8-6-6-6-6-6--4-4-4-4--8-8-8-8--4-4-4-4-8-8-8-8-8-8-|
|-6-6-6-6-6-4-4-4-4-4--4-4-4-4--8-8-8-8--4-4-4-4-8-8-8-8-8-8-|
|----------------------2-2-2-2--6-6-6-6--2-2-2-2-6-6-6-6-6-6-|

Chorus
|------------------------------------------------------------------------------|
|------------------------------------------------------------------------------|
|------------------------------------------------------------------------------| 
|-2-2-2-2-2-4-4-4-4-4-6-6-6-6-6-9-9-9-9-9--2-2-2-2-2-4-4-4-4-4-8-8-8-8-8-8-8-8-|
|-2-2-2-2-2-4-4-4-4-4-6-6-6-6-6-9-9-9-9-9--2-2-2-2-2-4-4-4-4-4-8-8-8-8-8-8-8-8-|
|-0-0-0-0-0-2-2-2-2-2-4-4-4-4-4-7-7-7-7-7--0-0-0-0-0-2-2-2-2-2-6-6-6-6-6-6-6-6-|


|-----------------------------------------|
|-----------------------------------------|
|-----------------------------------------| 1x
|-2-2-2-2-2-4-4-4-4-4-6-6-6-6-6-9-9-9-9-9-|
|-2-2-2-2-2-4-4-4-4-4-6-6-6-6-6-9-9-9-9-9-|
|-0-0-0-0-0-2-2-2-2-2-4-4-4-4-4-7-7-7-7-7-|

|---------------|
|---------------|
|-------------3-| 1x
|-2-2--2-2--2-3-|
|-2-2--2-2--2-1-|
|-0-0--0-0--0---|

Intro(again)
|---------------------|
|---------------------|
|-8-x-8-8-x-6-6-6-----| 2x
|-8-x-8-8-x-6-6-6-6-6-|
|-6-x-6-6-x-4-4-4-6-6-|
|-----------------4-4-|

Verse
|------------------------------------------|
|------------------------------------------|
|-8-8-8-8-8-6-6-6-6-6--8-x-8-8-x-8-8-8-8-8-| 1x
|-8-8-8-8-8-6-6-6-6-6--8-x-8-8-x-8-8-8-8-8-|
|-6-6-6-6-6-4-4-4-4-4--6-x 6-6-x-6-6-6-6-6-|
|------------------------------------------|


|---------------------------------------|
|---------------------------------------|
|-8-8-8-8-8-6-6-6-6-6-------------------| 1x
|-8-8-8-8-8-6-6-6-6-6--4-4-4-4--8-8-8-8-|
|-6-6-6-6-6-4-4-4-4-4--4-4-4-4--8-8-8-8-|
|----------------------2-2-2-2--6-6-6-6-|


|------------------------------------------|
|------------------------------------------|
|-8-8-8-8-8-6-6-6-6-6--8-x-8-8-x-8-8-8-8-8-| 1x
|-8-8-8-8-8-6-6-6-6-6--8-x-8-8-x-8-8-8-8-8-|
|-6-6-6-6-6-4-4-4-4-4--6-x 6-6-x-6-6-6-6-6-|
|------------------------------------------|


|------------------------------------------------------------|
|------------------------------------------------------------|
|-8-8-8-8-8-6-6-6-6-6----------------------------------------| 1x
|-8-8-8-8-8-6-6-6-6-6--4-4-4-4--8-8-8-8--4-4-4-4-8-8-8-8-8-8-|
|-6-6-6-6-6-4-4-4-4-4--4-4-4-4--8-8-8-8--4-4-4-4-8-8-8-8-8-8-|
|----------------------2-2-2-2--6-6-6-6--2-2-2-2-6-6-6-6-6-6-|
[ Tab from: http://www.guitartabs.cc/tabs/g/green_day/welcome_to_paradise_tab_ver_10.html ]
Chorus
|------------------------------------------------------------------------------|
|------------------------------------------------------------------------------|
|------------------------------------------------------------------------------| 
|-2-2-2-2-2-4-4-4-4-4-6-6-6-6-6-9-9-9-9-9--2-2-2-2-2-4-4-4-4-4-8-8-8-8-8-8-8-8-|
|-2-2-2-2-2-4-4-4-4-4-6-6-6-6-6-9-9-9-9-9--2-2-2-2-2-4-4-4-4-4-8-8-8-8-8-8-8-8-|
|-0-0-0-0-0-2-2-2-2-2-4-4-4-4-4-7-7-7-7-7--0-0-0-0-0-2-2-2-2-2-6-6-6-6-6-6-6-6-|


|-----------------------------------------|
|-----------------------------------------|
|-----------------------------------------| 1x
|-2-2-2-2-2-4-4-4-4-4-6-6-6-6-6-9-9-9-9-9-|
|-2-2-2-2-2-4-4-4-4-4-6-6-6-6-6-9-9-9-9-9-|
|-0-0-0-0-0-2-2-2-2-2-4-4-4-4-4-7-7-7-7-7-|

|---------------|
|---------------|
|-------------3-| 1x
|-2-2--2-2--2-3-|
|-2-2--2-2--2-1-|
|-0-0--0-0--0---|

Intro(again)
|---------------------|            |---|
|---------------------|       Ends |---|
|-8-x-8-8-x-6-6-6-----| 4x    With |---|
|-8-x-8-8-x-6-6-6-6-6-|            |-2-|
|-6-x-6-6-x-4-4-4-6-6-|            |-2-|
|-----------------4-4-|            |-0-|

Guitar Part During Bass Solo
(some of these notes are played lightly)
|---------------------------------|
|---------------------------------|
|---------------------------------| 
|---------------------------------|
|---------------------------------|
|-3/11~~~--6~~6h7-6-4-6-6h7-6~~4--|

|-------------------------12----------12-|
|----------------------12----12----12----|
|-------------------------------12-------| 
|----------------------------------------|
|-5/9-8-7-6------------------------------|
|----------------------------------------|

|-------------------------|
|-------------------------|
|-------------------------|   About 9x or 10x
|-xx12-xx15-xx14-xx13-xx12|   I'm not too sure
|-xx12-xx15-xx14-xx13-xx12|
|-------------------------|

Verse
|------------------------------------------|
|------------------------------------------|
|-8-8-8-8-8-6-6-6-6-6--8-x-8-8-x-8-8-8-8-8-| 1x
|-8-8-8-8-8-6-6-6-6-6--8-x-8-8-x-8-8-8-8-8-|
|-6-6-6-6-6-4-4-4-4-4--6-x 6-6-x-6-6-6-6-6-|
|------------------------------------------|


|---------------------------------------|
|---------------------------------------|
|-8-8-8-8-8-6-6-6-6-6-------------------| 1x
|-8-8-8-8-8-6-6-6-6-6--4-4-4-4--8-8-8-8-|
|-6-6-6-6-6-4-4-4-4-4--4-4-4-4--8-8-8-8-|
|----------------------2-2-2-2--6-6-6-6-|


|------------------------------------------|
|------------------------------------------|
|-8-8-8-8-8-6-6-6-6-6--8-x-8-8-x-8-8-8-8-8-| 1x
|-8-8-8-8-8-6-6-6-6-6--8-x-8-8-x-8-8-8-8-8-|
|-6-6-6-6-6-4-4-4-4-4--6-x 6-6-x-6-6-6-6-6-|
|------------------------------------------|


|------------------------------------------------------------|
|------------------------------------------------------------|
|-8-8-8-8-8-6-6-6-6-6----------------------------------------| 1x
|-8-8-8-8-8-6-6-6-6-6--4-4-4-4--8-8-8-8--4-4-4-4-8-8-8-8-8-8-|
|-6-6-6-6-6-4-4-4-4-4--4-4-4-4--8-8-8-8--4-4-4-4-8-8-8-8-8-8-|
|----------------------2-2-2-2--6-6-6-6--2-2-2-2-6-6-6-6-6-6-|

Chorus
|------------------------------------------------------------------------------|
|------------------------------------------------------------------------------|
|------------------------------------------------------------------------------| 
|-2-2-2-2-2-4-4-4-4-4-6-6-6-6-6-9-9-9-9-9--2-2-2-2-2-4-4-4-4-4-8-8-8-8-8-8-8-8-|
|-2-2-2-2-2-4-4-4-4-4-6-6-6-6-6-9-9-9-9-9--2-2-2-2-2-4-4-4-4-4-8-8-8-8-8-8-8-8-|
|-0-0-0-0-0-2-2-2-2-2-4-4-4-4-4-7-7-7-7-7--0-0-0-0-0-2-2-2-2-2-6-6-6-6-6-6-6-6-|


|-----------------------------------------|
|-----------------------------------------|
|-----------------------------------------| 1x
|-2-2-2-2-2-4-4-4-4-4-6-6-6-6-6-9-9-9-9-9-|
|-2-2-2-2-2-4-4-4-4-4-6-6-6-6-6-9-9-9-9-9-|
|-0-0-0-0-0-2-2-2-2-2-4-4-4-4-4-7-7-7-7-7-|

|---------------|
|---------------|
|-------------3-| 1x
|-2-2--2-2--2-3-|
|-2-2--2-2--2-1-|
|-0-0--0-0--0---|

Intro(again)
|---------------------|            |---|
|---------------------|       Ends |---|
|-8-x-8-8-x-6-6-6-----| 4x    With |-8-|
|-8-x-8-8-x-6-6-6-6-6-|            |-8-|
|-6-x-6-6-x-4-4-4-6-6-|            |-6-|
|-----------------4-4-|            |---|         


Comments