Green Day - Welcome To Paradise Chords & Tabs

 

Welcome To Paradise Chords & Tabs

Green Day Chords & Tabs

Version: 1 Type: Tab 17 ratings
1 star 2 stars 3 stars 4 stars 5 stars
comments

Welcome To Paradise Tab

   
Song: Welcome to paradise
Band: Green Day
Album: Dookie/International Superhits
Tabber: Barry French (Bazdurst)

Tuning: Eb,Ab,Db,Gb,Bb,Eb

Intro

E---------------------------
B---------------------------
G-9-x-9-9--9-x-7-7-7--------
D-9-x-9-9--9-x-7-7-7-7--7-7-
A-7-x-7-7--7-x-5-5-5-7--7-7-
E--------------------5--5-5-

Verse
[ Tab from: http://www.guitartabs.cc/tabs/g/green_day/welcome_to_paradise_tab.html ]
E--------------------------------------------------------------------
B--------------------------------------------------------------------
G-9-9-9-9-9-9-9-9--7-7-7-7-7-7-7-7--9-9-9-9-9-9-9-9------------------
D-9-9-9-9-9-9-9-9--7-7-7-7-7-7-7-7--9-9-9-9-9-9-9-9------------------
A-7-7-7-7-7-7-7-7--5-5-5-5-5-5-5-5--7-7-7-7-7-7-7-7------------------
E--------------------------------------------------------------------             
                                                                     
E--------------------------------------------------------------------
B--------------------------------------------------------------------
G-9-9-9-9-9-9-9-9--7-7-7-7-7-7-7-7-----------------------------------
D-9-9-9-9-9-9-9-9--7-7-7-7-7-7-7-7--5-5-5-5-5-5-5-5--9-9-9-9-9-9-9-9-
A-7-7-7-7-7-7-7-7--5-5-5-5-5-5-5-5--5-5-5-5-5-5-5-5--9-9-9-9-9-9-9-9-
E-----------------------------------3-3-3-3-3-3-3-3--7-7-7-7-7-7-7-7-

Chorus

E--------------------------------------------------------------------
B--------------------------------------------------------------------
G-----------------------------------------------5--5-5-5-5-5-5-5-----
D-2--2-2-2-2-2--5--5-5-5-5-5-5--7--7-7-7-7-7-7--5--5-5-5-5-5-5-5-----  
A-2--2-2-2-2-2--5--5-5-5-5-5-5--7--7-7-7-7-7-7--3--3-3-3-3-3-3-3-----
E-0--0-0-0-0-0--3--3-3-3-3-3-3--5--5-5-5-5-5-5-----------------------

E--------------------------------------------------------------------
B--------------------------------------------------------------------
G--------------------------------5--5-5-5-5-5-5-5-5--5-5-5-5-5-5-5-5-
D-2--2-2-2-2-2--5--5-5-5-5-5-5---5--5-5-5-5-5-5-5-5--5-5-5-5-5-5-5-5-  
A-2--2-2-2-2-2--5--5-5-5-5-5-5---3--3-3-3-3-3-3-3-3--3-3-3-3-3-3-3-3-
E-0--0-0-0-0-0--3--3-3-3-3-3-3---------------------------------------
                                                                                    
e----------------
B----------------
G--------------4-
D-2--2-2--2-2--4-
A-2--2-2--2-2--2-
E-0--0-0--0-0----

Play this during the bass solo
E------------------
B-10--13---12--11--
G-9---12---11--10--
D-7---10---9---8---
A------------------
E------------------
Comments