Green Day - Welcome To Paradise (real Version) Chords & Tabs

 

Welcome To Paradise (real Version) Chords & Tabs

Green Day Chords & Tabs

Version: 1 Type: Bass Tab 2 ratings
1 star 2 stars 3 stars 4 stars 5 stars
comments

Welcome To Paradise (real Version) Bass Tab

Title: 'Welcome to Paradise'
Artist: Green Day
Album: Kerplunk/Dookie


Standard E A D G Tuning. This is how Mike Dirnt plays it for real.

INTRO
(===============================================2x's=============================================)
G|-----------------------------------------------------------------------------------------------|
D|-------------------------------------6---------------------------------------------------------|
A|-------------------6--66-6--6/0--4-4-----------------------------------------------------------|
E|----------------------------------------4--44--------------------------------------------------|

VERSE I
G|-----------------------------------------------------------------------------------------------|
D|------------------------4-3------------3-4-3---------------------------------------------------|
A|-------------------6--6-----6-4--4-4-4-------4-6--6-6--6--6--6-6--6----------------------------|
E|-----------------------------------------------------------------------------------------------|

G|-----------------------------------------------------------------------------------------------|
D|------------------------4-3------------3-4-3---------------------------------------------------|
A|-------------------6--6-----6-4--4-4-4-------4-------------------------------------------------|
E|-----------------------------------------------2--2--2-2--6--6-6--6-6-6------------------------|

G|-----------------------------------------------------------------------------------------------|
D|------------------------4-3------------3-4-3---------------------------------------------------|
A|-------------------6--6-----6-4--4-4-4-------4-6--6-6--6--6--6-6--6----------------------------|
E|-----------------------------------------------------------------------------------------------|

G|-----------------------------------------------------------------------------------------------|
D|------------------------4-3------------3-4-3---------------------------------------------------|
A|-------------------6--6-----6-4--4-4-4-------4-------------------------------------------------|
E|-----------------------------------------------2--2--2-2--6--6-6--6-6--2--2--2-2-6--6-6--6-6-6-|

CHORUS I

G|-----------------------------------------------------------------------------------------------|
D|-----------------------------------------------------------------------------------------------|
A|-------------------6--6--6-6-------------------------------------------------------------------|
E|-----------------------------0/2--2--2--2-2/0--4--4--4-4/0--7--7-7--7-7-7----------------------|

G|-----------------------------------------------------------------------------------------------|
D|-----------------------------------------------------------------------------------------------|
A|-------------------6--6--6-6-------------------------------------------------------------------|
E|-----------------------------0/2--2--2--2-2/0--6--6-6-6--6-6--6-6--6-6-6-----------------------|

G|-----------------------------------------------------------------------------------------------|
D|-----------------------------------------------------------------------------------------------|
A|-------------------6--6--6-6-------------------------------------------------------------------|
E|-----------------------------0/2--2--2--2-2/0--4--4--4-4/0--7--7-7--7-7-7----------------------|

G|-----------------------------------------------------------------------------------------------|
D|----------------------------------------8------------------------------------------------------|
A|-------------------6-X-6-X-6-X-6---------------------------------------------------------------|
E|---------------------------------6----6--------------------------------------------------------|

VERSE II
(===============================================2x's=============================================)
G|-----------------------------------------------------------------------------------------------|
D|-------------------------------------6---------------------------------------------------------|
A|-------------------6--66-6--6/0--4-4-----------------------------------------------------------|
E|----------------------------------------4--44--------------------------------------------------|

G|-----------------------------------------------------------------------------------------------|
D|------------------------4-3------------3-4-3---------------------------------------------------|
A|-------------------6--6-----6-4--4-4-4-------4-6--6-6--6--6--6-6--6----------------------------|
E|-----------------------------------------------------------------------------------------------|

G|-----------------------------------------------------------------------------------------------|
D|------------------------4-3------------3-4-3---------------------------------------------------|
A|-------------------6--6-----6-4--4-4-4-------4-------------------------------------------------|
E|-----------------------------------------------2--2--2-2--6--6-6--6-6-6------------------------|

G|-----------------------------------------------------------------------------------------------|
D|------------------------4-3------------3-4-3---------------------------------------------------|
A|-------------------6--6-----6-4--4-4-4-------4-6--6-6--6--6--6-6--6----------------------------|
E|-----------------------------------------------------------------------------------------------|

G|-----------------------------------------------------------------------------------------------|
D|------------------------4-3------------3-4-3---------------------------------------------------|
A|-------------------6--6-----6-4--4-4-4-------4-------------------------------------------------|
E|-----------------------------------------------2--2--2-2--6--6-6--6-6--2--2--2-2-6--6-6--6-6-6-|

CHORUS II
G|-----------------------------------------------------------------------------------------------|
D|-----------------------------------------------------------------------------------------------|
A|-------------------6--6--6-6-------------------------------------------------------------------|
E|-----------------------------0/2--2--2--2-2/0--4--4--4-4/0--7--7-7--7-7-7----------------------|
[ Tab from: http://www.guitartabs.cc/tabs/g/green_day/welcome_to_paradise_real_version_btab.html ]
G|-----------------------------------------------------------------------------------------------|
D|-----------------------------------------------------------------------------------------------|
A|-------------------6--6--6-6-------------------------------------------------------------------|
E|-----------------------------0/2--2--2--2-2/0--6--6-6-6--6-6--6-6--6-6-6-----------------------|

G|-----------------------------------------------------------------------------------------------|
D|-----------------------------------------------------------------------------------------------|
A|-------------------6--6--6-6-------------------------------------------------------------------|
E|-----------------------------0/2--2--2--2-2/0--4--4--4-4/0--7--7-7--7-7-7----------------------|

G|-----------------------------------------------------------------------------------------------|
D|----------------------------------------8------------------------------------------------------|
A|-------------------6-X-6-X-6-X-6---------------------------------------------------------------|
E|---------------------------------6----6--------------------------------------------------------|

BRIDGE
(===============================================4x's=============================================)
G|-----------------------------------------------------------------------------------------------|
D|-------------------------------------6---------------------------------------------------------|
A|-------------------6--66-6--6/0--4-4-----------------------------------------------------------|
E|----------------------------------------4--44--------------------------------------------------|

(===============================================20x's============================================)
G|-----------------------------------------------------------------------------------------------|
D|-----------------------6--8-----8-------7-------6----------------------------------------------|
A|-------------------6-6------9-9---9-8-8---8-7-7---7-6-6----------------------------------------|
E|-----------------------------------------------------------------------------------------------|

VERSE III
G|-----------------------------------------------------------------------------------------------|
D|------------------------4-3------------3-4-3---------------------------------------------------|
A|-------------------6--6-----6-4--4-4-4-------4-6--6-6--6--6--6-6--6----------------------------|
E|-----------------------------------------------------------------------------------------------|

G|-----------------------------------------------------------------------------------------------|
D|------------------------4-3------------3-4-3---------------------------------------------------|
A|-------------------6--6-----6-4--4-4-4-------4-------------------------------------------------|
E|-----------------------------------------------2--2--2-2--6--6-6--6-6-6------------------------|

G|-----------------------------------------------------------------------------------------------|
D|------------------------4-3------------3-4-3---------------------------------------------------|
A|-------------------6--6-----6-4--4-4-4-------4-6--6-6--6--6--6-6--6----------------------------|
E|-----------------------------------------------------------------------------------------------|

G|-----------------------------------------------------------------------------------------------|
D|------------------------4-3------------3-4-3---------------------------------------------------|
A|-------------------6--6-----6-4--4-4-4-------4-------------------------------------------------|
E|-----------------------------------------------2--2--2-2--6--6-6--6-6--2--2--2-2-6--6-6--6-6-6-|

CHORUS III
G|-----------------------------------------------------------------------------------------------|
D|-----------------------------------------------------------------------------------------------|
A|-------------------6--6--6-6-------------------------------------------------------------------|
E|------------------------------0/2--2--2--2-2/0--4--4--4-4/0--7--7-7--7-7-7---------------------|

G|-----------------------------------------------------------------------------------------------|
D|-----------------------------------------------------------------------------------------------|
A|-------------------6--6--6-6-------------------------------------------------------------------|
E|-----------------------------0/2--2--2--2-2/0--6--6-6-6--6-6--6-6--6-6-6-----------------------|

G|-----------------------------------------------------------------------------------------------|
D|-----------------------------------------------------------------------------------------------|
A|-------------------6--6--6-6-------------------------------------------------------------------|
E|-----------------------------0/2--2--2--2-2/0--4--4--4-4/0--7--7-7--7-7-7----------------------|

G|-----------------------------------------------------------------------------------------------|
D|----------------------------------------8------------------------------------------------------|
A|-------------------6-X-6-X-6-X-6---------------------------------------------------------------|
E|---------------------------------6----6--------------------------------------------------------|

OUTRO
G|-----------------------------------------------------------------------------------------------|
D|-------------------------------------6---------------------------------------------------------|
A|-------------------6--66-6--6/0--4-4-----------------------------------------------------------|
E|----------------------------------------4--44--------------------------------------------------|

G|--------------------------------8--6-------6---------------------------------------------------|
D|-------------------------------------8-6-8---8-6-----------------------------------------------|
A|-------------------6--6-6-6-6-6----------------------------------------------------------------|
E|-----------------------------------------------------------------------------------------------|

(===============================================2x's=============================================)
G|-----------------------------------------------------------------------------------------------|
D|-------------------------------------6---------------------------------------------------------|
A|-------------------6--66-6--6/0--4-4-----------------------------------------------------------|
E|----------------------------------------4--44--------------------------------------------------|

GREEN DAY ROCKS!!!!!!						
Comments