Green Day - Welcome To Paradise Live Chords & Tabs

 

Welcome To Paradise Live Chords & Tabs

Green Day Chords & Tabs

Version: 1 Type: Tab 0 ratings
1 star 2 stars 3 stars 4 stars 5 stars
comments

Welcome To Paradise Live Tab

   
"Welcome to Paradise" (Guitar Solo live)
tune down 1/2 step

this is how B.J. Armstrong plays the bridge/guitar solo live, there's lots of
feedback thru out the part.

  Em
E--0------------------------------------------------------------------------|
B--0------------------------------------------------------------------------|
G--0------------------------------------------------------------------------|
D--2------------------------------------------------------------------------|
A--2--------------------------------\7~~~~~~~~~~~~~---/2~~~~~~~~~~~~~~~~~~~-|
E--0------------------------------------------------------------------------|
   let chord ring for a while

[ Tab from: http://www.guitartabs.cc/tabs/g/green_day/welcome_to_paradise_live_tab.html ]
E------------------------------------------------------|
B------------------------------------------------------|
G------------------------------------------------------|
D--------------------\5/4/3/2/--------------/7~~~~~~---|
A-h3p2p0h2h3p2~~~~~------------------------------------|
E------------------------------pickscrape--------------|

   E       G       F#      F
E------4-------7-------6-------5----|
B-----------------------------------|
G--4-4--4--7-7--7--6-6--6--5-5--5---|
D--2-2-----5-5-----4-4-----3-3------|
A-----------------------------------|
E-----------------------------------|
  pm..    pm..    pm..    pm..


   E       G       F#      F
E--4-4-4-4-7-7-7-7-6-6-6-6-5-5-5-5--------|
B--X-X-X-X-X-X-X-X-X-X-X-X-X-X-X-X--------|
G--4-4-4-4-7-7-7-7-6-6-6-6-5-5-5-5--(4X)--|
D--2-2-2-2-5-5-5-5-4-4-4-4-3-3-3-3--------|
A-----------------------------------------|
E-----------------------------------------|
Comments