Green Day - Welcome To Paradise Chords & Tabs

 

Welcome To Paradise Chords & Tabs

Green Day Chords & Tabs

Version: 4 Type: Bass Tab 0 ratings
1 star 2 stars 3 stars 4 stars 5 stars
comments

Welcome To Paradise Bass Tab

Standard tuning. Aside from the chorus, the tab is pretty correct. Still sounds cool.

Intro:
|------------------------------------|
|------------------------------------|
|---7X-7-7X-5-5\-0-0-0---------------|
|------------------------------------| X2

Verse:
|-------------------------------------------|
|-------------------------------------------|
|---7-7-7-7\-5-5-5-5-5/-7X-7-7X-7X-7X-7-7X--|
|-------------------------------------------|

|-------------------------------------------|
|-------5-4-------5-4-----------------------|
|---7-7-----5-5-5-----------0-2~--2/--------|
|---------------------3-3-3-----------------|

|-------------------------------------------|
|-------5-4-------4-5-----------------------|
|---7-7-----5-5-5-----7X-7-7X-7X-7X-7-7X----|
|-------------------------------------------|

|-------------------------------------------|
|-------5-4-------5-4-----------------------|
|---7-7-----5-5-5-----------0-2~------------|
|---------------------3-3-3-----------------|

Pre chorus:
|--------------------------|
|--------------------------|
|---------0-2~-------------|
|---3-3-3------------------|

Chorus:
|-------------------------------------------|
|-------------------------------------------|
|------------------------------3-3-3-3-3----|
|---0-0-0-0-3-3-3-3-3/-5-5-5-5--------------|

|-------------------------------------------|
|-------------------------------------------|
|---------------------2-2-2-2-2~------------|
|---0-0-0-0-3-3-3-3-3-----------------------|

|-------------------------------------------|
|-------------------------------------------|
|------------------------------3-3-3-3-3----|    (There are some little 
|---0-0-0-0-3-3-3-3-3/-5-5-5-5--------------|     variations Mike does here,
                                                  but they are minor.)
|-------------------------------------------|
|-------------------------------------------|
|-------------------------------------------|
|---0-0-0/-7X-------------------------------|

Verse II
|------------------------------------|
|------------------------------------|
|---7X-7-7X-5-5\-0-0-0---------------|
|------------------------------------| X2

|-------------------------------------------|
|-------------------------------------------|
|---7-7-7-7\-5-5-5-5-5/-7X-7-7X-7X-7X-7-7X--|
|-------------------------------------------|

|-------------------------------------------|
|-------5-4-------5-4-----------------------|
|---7-7-----5-5-5-----------0-2~--2/--------|
|---------------------3-3-3-----------------|

|-------------------------------------------|
|-------5-4-------4-5-----------------------|
|---7-7-----5-5-5-----7X-7-7X-7X-7X-7-7X----|
|-------------------------------------------|

|-------------------------------------------|
|-------5-4-------5-4-----------------------|
|---7-7-----5-5-5-----------0-2~------------|
|---------------------3-3-3-----------------|

|--------------------------|
|--------------------------|
|---------0-2~-------------|
|---3-3-3------------------|
[ Tab from: http://www.guitartabs.cc/tabs/g/green_day/welcome_to_paradise_btab_ver_4.html ]
Chorus:
|-------------------------------------------|
|-------------------------------------------|
|------------------------------3-3-3-3-3----|
|---0-0-0-0-3-3-3-3-3/-5-5-5-5--------------|

|-------------------------------------------|
|-------------------------------------------|
|---------------------2-2-2-2-2~------------|
|---0-0-0-0-3-3-3-3-3-----------------------|

|-------------------------------------------|
|-------------------------------------------|
|------------------------------3-3-3-3-3----|     
|---0-0-0-0-3-3-3-3-3/-5-5-5-5--------------|     

|-------------------------------------------|
|-------------------------------------------|
|-------------------------------------------|
|---0-0-0/-7X-------------------------------|

Bridge:
|------------------------------------|
|------------------------------------|
|---7X-7-7X-5-5\-0-0-0/--------------|
|------------------------------------| X2

|------------------------------------|
|------------------------------------|
|---7X-7-7X-5-5\-0-0-0~--------------|
|------------------------------------|

Solo:
|----------------------------------|
|-----9----9---9---9---------------|
|---7---10---9---8---7-------------|
|----------------------------------| x16

|------------------------------------|
|---9-9/-12-12\-11\-11\-10\-10\------|
|---7-7/-10-10\-9\--9\--8\--8\-------|
|------------------------------------| x4

Verse III:
|-------------------------------------------|
|-------------------------------------------|
|---7-7-7-7\-5-5-5-5-5/-7X-7-7X-7X-7X-7-7X--|
|-------------------------------------------|

|-------------------------------------------|
|-------5-4-------5-4-----------------------|
|---7-7-----5-5-5-----------0-2~--2/--------|
|---------------------3-3-3-----------------|

|-------------------------------------------|
|-------5-4-------4-5-----------------------|
|---7-7-----5-5-5-----7X-7-7X-7X-7X-7-7X----|
|-------------------------------------------|

|-------------------------------------------|
|-------5-4-------5-4-----------------------|
|---7-7-----5-5-5-----------0-2~------------|
|---------------------3-3-3-----------------|

|--------------------------|
|--------------------------|
|---------0-2~-------------|
|---3-3-3------------------|

Chorus:
|-------------------------------------------|
|-------------------------------------------|
|------------------------------3-3-3-3-3----|
|---0-0-0-0-3-3-3-3-3/-5-5-5-5--------------|

|-------------------------------------------|
|-------------------------------------------|
|---------------------2-2-2-2-2~------------|
|---0-0-0-0-3-3-3-3-3-----------------------|

|-------------------------------------------|
|-------------------------------------------|
|------------------------------3-3-3-3-3----|     
|---0-0-0-0-3-3-3-3-3/-5-5-5-5--------------|     

|-------------------------------------------|
|-------------------------------------------|
|-------------------------------------------|
|---0-0-0/-7X-------------------------------|

Outro:
|------------------------------------|
|------------------------------------|
|---7X-7-7X-5-5\-0-0-0---------------|
|------------------------------------| X3

|------------------------------------|
|------------------------------------|
|---7X-7-7X-5-5\-0-0-0/-7X-----------|
|------------------------------------|
Comments