Green Day - Welcome To Paradise Chords & Tabs

 

Welcome To Paradise Chords & Tabs

Green Day Chords & Tabs

Version: 3 Type: Bass Tab 0 ratings
1 star 2 stars 3 stars 4 stars 5 stars
comments

Welcome To Paradise Bass Tab

   
Song: Welcome to Paradise
Artist: Green Day
Album: Dookie
Tabbed By: Scott Sherman
Tune: E to Eb

Intro                                 Pre-Verse
G----------------------------------| |------------------|
D-----------7---------------7------| |------------------|
A-7-077-7755------7-077-7755-------| |-7-777775-5-5-555-|
E------------5-555-----------5-555-| |------------------|

Verse
G-------------------------------------------------------------->
D--------------------54-----454--------------------54-----454-->
A-7077-07-7-77-777-77--75-55---5---------------7-77--75-55---5->
E-------------------------------3-33357-7777777---------------->

>---------------------------------------------------------------------|
>--------------------54-----454---------------------------------------|
>-7077-07-7-77-777-77--75-55---5---------------------2-222222222222222|
>-------------------------------3-33357-77777773-3335-----------------|
[ Tab from: http://www.guitartabs.cc/tabs/g/green_day/welcome_to_paradise_btab_ver_3.html ]
Chorus X=Stop
G-------------------------------------------------------------------->
D------------------------------------------------------------332h3p2->
A-----------------0-000003-333-333----------------2-2-2222-22-------->
E-0-000003-333-333----------------0-000003-333-333------------------->

>-------4---------------2------------------X
>-2-2222-----------------------------------X
>-----------------0-0000-3-333-333--------2X
>--------3-333-333----------------0-00-000-X

THEN Play Intro, Pre-Verse, Verse, Chorus, Pre-Verse-2x, thenů

Bridge-20X
G--------------------------|
D---7h9-----9-----8---8h10-|
A-77----1010-10-99-9-8-----|
E--------------------------|

THEN Play Pre-Verse, Verse(With D-2h3p2h3 at the end), Chorus, thenů

Outro
G-------------------------7h9p77676-------------------->
D-----------7----------------------760----------7------>
A-7-077-7755-5-555-7-077-7------------7-077-7755-5-555->
E------------------------------------------------------>

>--------------------| 
>-----------7--------| 
>-7-077-7755------7\-| 
>------------5-555---|
END
Comments or corrections mail me at shermdog17@yahoo.com
Check out my band at www.geocities.com/thecause_ifanything/punk.html
Comments