Green Day - Warning Chords & Tabs

 

Warning Chords & Tabs

Green Day Chords & Tabs

Version: 3 Type: Tab 0 ratings
1 star 2 stars 3 stars 4 stars 5 stars
comments

Warning Tab

green day, warning.
Tabbed by mikel, marlboro3414@yahoo.com.
  

Green day, Warning
Mikel De Uranga, marlboro3414@yahoo.com


This part repeats the whole song

[ Tab from: http://www.guitartabs.cc/tabs/g/green_day/warning_tab_ver_3.html ]
------------------------------------------------
------------------------------------------------
------------------------------------------------
----------------------4--5-5-4------------------
-----------4--5-5--7------------7--5-5--4-------
---5-5--7-----------------------------------7---


     this part  X2

-------------------------------------
-------------------------------------
-------------------------------------
-------------------------------------
-------4----3--------4----3--0-------
----5----5------5-5-----5------------


and thats all, its too easy and fun to play

Good luck

Mikel 
:: Ultimate Guitar Archive :: 
http://www.ultimate-guitar.com 

 
Comments