Green Day - Warning Chords & Tabs

 

Warning Chords & Tabs

Green Day Chords & Tabs

Version: 1 Type: Tab 5 ratings
1 star 2 stars 3 stars 4 stars 5 stars
comments

Warning Tab

this is a pretty simple song and i think the guitar tab is right, but
i could be wrong
i tried to line up the bass and guitar tabs to make it easier to read
[ Tab from: http://www.guitartabs.cc/tabs/g/green_day/warning_tab.html ]
G---------------------------------B
D-----------------4-5-5-5-4-------A
A---------4-5-5-5-----------5-5-5-S    \
E---5-5-5-------------------------S     \
                                         > this is played continually
e----------------------------------G    /          through the song
B----------------------------------U   /
G-----------7-7-7---12-X-12--7-7-7-I
D---7-X-7---7-7-7---12-X-12--7-7-7-T
A---7-X-7---5-5-5---10-X-10--5-5-5-A
E---5-X-5--------------------------R

and that's basically the whole song, exept for this riff that's
played a couple of times throughout by the guitar while the bass is 
just playing low A

e-------------------------------------G
B-------------------------------------U
G-------------------------------------I
D-------------------------------------T
A-------4---------------4-------------A
E---5-----5-3---3-5---5--5-3---3---5--R

and that's the song
u can email me at zanna89@hotmail.com and tell me what u think

Buh bye
luv ya 
Suzanne :)
Comments