Green Day - Warning Chords & Tabs

 

Warning Chords & Tabs

Green Day Chords & Tabs

Version: 8 Type: Bass Tab 0 ratings
1 star 2 stars 3 stars 4 stars 5 stars
comments

Warning Bass Tab

Intro/Verse/Chorus 
[ Tab from: http://www.guitartabs.cc/tabs/g/green_day/warning_btab_ver_8.html ]
G----------------------------------------
D-----------0-0-2-4-5-5-4-2-0-0-----
A-0-0-2-4--------------------------4-2-
E-----------------------------------------

Post Chorus/Bridge 

G---------------------------
D---------------------------
A-0-4-0------0-0-4-0-----
E--------3--0-----------3-0 
Comments