Green Day - Warning Chords & Tabs

 

Warning Chords & Tabs

Green Day Chords & Tabs

Version: 11 Type: Bass Tab 0 ratings
1 star 2 stars 3 stars 4 stars 5 stars
comments

Warning Bass Tab

   
i am pretty sure this is right.....if not email me at gothicgurl_2004@yahoo.com...if u
errors send me wut u find wrong..but im sure his is all right.. mabie a few things wrong
probably not....when i play it to the song it sounds right. it standered tuning for a
bass. and i think its the same part for guitar to. so yeah this was my first tab..ummm 
u like the tab


Standered Tuning: E A D G

~Intro~

G|-----------------0-0-------------|
D|---------0-0-2-4-----4-2-0-0-----|
A|-0-0-2-4---------------------4-2-|       x2
E|---------------------------------|

~Verse 1~

G|-----------------0-0-------------|
D|---------0-0-2-4-----4-2-0-0-----|
A|-0-0-2-4---------------------4-2-|      x 10
E|---------------------------------|

~Chorus~

G|-----------------0-0-------------|
D|---------0-0-2-4-----4-2-0-0-----|
A|-0-0-2-4---------------------4-2-|      x 4
E|---------------------------------|

G|-------------------------------|
D|-------------------------------|
A|-0---0-4-------0---0-4-0-------|         x 2
E|---------3---0-----------3---0-|

~Verse 2~
[ Tab from: http://www.guitartabs.cc/tabs/g/green_day/warning_btab_ver_11.html ]
G|-----------------0-0-------------|
D|---------0-0-2-4-----4-2-0-0-----|
A|-0-0-2-4---------------------4-2-|      x 10
E|---------------------------------|

~Chorus~

G|-----------------0-0-------------|
D|---------0-0-2-4-----4-2-0-0-----|
A|-0-0-2-4---------------------4-2-|      x 8
E|---------------------------------|

~Interlude~

G|-------------------------------|
D|-------------------------------|
A|-0---0-4-------0---0-4-0-------|         x 2
E|---------3---0-----------3---0-|

~Verse 3~
G|-------------------------------------------|
D|-------------------------------------------|
A|-0---0-4-------0---0-4-0------         x 2-|
E|---------3---0-----------3---0-------------|

G|-----------------0-0-------------|
D|---------0-0-2-4-----4-2-0-0-----|
A|-0-0-2-4---------------------4-2-|      x 3
E|---------------------------------|


G|-------------------|
D|---------0-0-------|
A|-0-0---------------|
E|-----------------3-|

~Chorus~

G|-----------------0-0-------------|
D|---------0-0-2-4-----4-2-0-0-----|
A|-0-0-2-4---------------------4-2-|      x 8
E|---------------------------------|

G|-----------------0-0----------------|
D|---------0-0-2-4-----4-2-0-0--------|
A|-0-0-2-4---------------------4-2--0-|
E|------------------------------------|

if u find somthing wrong email me at gothicgurl_2004@yahoo.com......any comments or 
email me.....so yeah thxs for readin my tab
Comments