Green Day - Walking Contradiction Chords & Tabs

 

Walking Contradiction Chords & Tabs

Green Day Chords & Tabs

Version: 7 Type: Tab 0 ratings
1 star 2 stars 3 stars 4 stars 5 stars
comments

Walking Contradiction Tab

Green Day Walking Contradiction
From the albums Insomniac and International Superhits
Tracks 14 and 12
Tabbed by Liam
Email: guitar_rocker_47@hotmail.com
Tuning: down half a step

I noticed that all the tabs for this song didn't sound right. (that's why im tabbing a
song that already has tab for it. This comment is for a person who commented on my blink
182 bass tab happy holidays)

The order and how many times you play a certain guitar riff in this song is located at
the bottom of this tab

Intro
E|-------------------|-----------------|------------------|-----------------|
B|-------------------|-----------------|------------------|-----------------|
G|-------------------|-----------------|------------------|-----------------|
D|-7-----------------|-----------------|-7----------------|-----------------|
A|-7---7-7-7-7-7-7-7-|-7-7-7-7-7-7-7-7-|-7--7-7-7-7-7-7-7-|-7-7-7-7-7-7-7-7-|
E|-5---5-5-5-5-5-5-5-|-5-5-5-5-5-5-5-5-|-5--5-5-5-5-5-5-5-|-5-5-5-5-5-5-5-5-|
PM     *******************************

Verse
E|---------------------|-----------------|-------------------|--------------|
B|-------------7-------|-----------------|-------7--7--------|--------------|
G|----------7--7-------|-----------------|-------7--7--------|--------------|
D|----------7--7-------|-----------------|-------7--7--------|--------------|
A|-7----7---5--5-----5-|-5-5/7--7-7-7--7-|-7-----5--5------5-|-5-5/7--7-7-7-|
E|-5----5---------0--3-|-3-3/5--5-5-5--5-|-5--0--------0---3-|-33/5--5-5-5-|
[ Tab from: http://www.guitartabs.cc/tabs/g/green_day/walking_contradiction_tab_ver_7.html ]
Chorus
E|------------------|--------------------|-------------------|--------------|
B|-7--7-------------|--------------------|-7--7--------------|--------------|
G|-7--7-------------|--------------------|-7--7--------------|--------------|
D|-7--7-------------|--------------------|-7--7--------------|--------------|
A|-5--5------5--5/7-|-(7)--7-7-7-7-7-7-7-|-5--5-------5--5/7-|-(7)--7-7-7-7-|
E|--------0--3-3/5-|-(5)--5-5-5-5-5-5-5-|--------0---3--3/5-|-(5)--5-5-5-5-|

E|--------------------------------------------------------------------------|
B|--------------------------------------------------------------------------|
G|--------------------------------------------------------------------------|
D|--------------------------------------------------------------------------|
A|-7-7-7--------------------------------------------------------------------|
E|-5-5-5--------------------------------------------------------------------|

Outro
E|----------------|-------------------|-----------------|-------------------|
B|------7--7------|-------------------|------7--7-------|-------------------|
G|------7--7------|-------------------|------7--7-------|-------------------|
D|------7--7------|-------------------|------7--7-------|-------------------|
A|-7----5--5----5-|-(5)--5/7--7-7-7-7-|-7----5--5-----5-|-(5)--5------------|
E|-5-0--------0-3-|-(3)--3/5--5-5-5-5-|-5--x-------0--3-|-(3)--3--0-0-0-x-x-|

E|------------------|-------------------|----------------|------------------|
B|------------------|-------------------|-------7--7-----|------------------|
G|--------7--7------|-------------------|-------7--7-----|------------------|
D|--------7--7------|-------------------|-------7--7-----|------------------|
A|-7--7---5--5----5-|-(5)--5/7--7-7-7-7-|-7--7--5--5---5-|-(5)-5--7--7------|
E|-5--5---------0-3-|-(3)--3/5--5-5-5-5-|-5--5-------0-3-|-(3)-3--5--5------|

Order

Intro
Verse x9
Chorus x2
Verse x5
Chorus x4
Outro

Enjoy, quite an easy, and im surprised no one has tabbed a correct one that I have seen.
If you like this rate it please. And if you don't like this comment on it and I'll sort
you out! If you take this tab and don't rate it u r stealing, thief arrghhh!
Comments