Green Day - Walking Contradiction Chords & Tabs

 

Walking Contradiction Chords & Tabs

Green Day Chords & Tabs

Version: 6 Type: Tab 0 ratings
1 star 2 stars 3 stars 4 stars 5 stars
comments

Walking Contradiction Tab

i know this is perfect because i got it right out of the book

tune down 1/2 steps
.=palm mute

intro:
eb-----------------------------------------------------------------------------
Bb-----------------------------------------------------------------------------
Gb-----------------------------------------------------------------------------
Db-7-----------------7---------------------------------------------------------
Ab-7-777777777777777-7-777777777777777-----------------------------------------
Eb-5-555555555555555-5-555555555555555-----------------------------------------
     ...............
[ Tab from: http://www.guitartabs.cc/tabs/g/green_day/walking_contradiction_tab_ver_6.html ]
verse: x18
eb-----------------------------------------------------------------------------
Bb-----------------------------------------------------------------------------
Gb----77-----------------777---------------------------------------------------
Db----77-----------------777---------------------------------------------------
Ab-77-55---555-77777-7---555---555-7777----------------------------------------
Eb-55----0-333-55555-5-0-----0-333-5555----------------------------------------

chorus: x4
eb-----------------------------------------------------------------------------
Bb-----------------------------------------------------------------------------
Gb-77--------------------------------------------------------------------------
Db-77--------------------------------------------------------------------------
Ab-55---555-77777777-----------------------------------------------------------
Eb----0-333-55555555-----------------------------------------------------------

verse x10 

chorus x8

outro:
eb-----------------------------------------------------------------------------
Bb-----------------------------------------------------------------------------
Gb-----77-----------------77-----------------77----------------77--------------
Db-----77-----------------77-----------------77----------------77--------------
Ab-7---55---555-77777-7---55---555--------77-55---555-77777-77-55---555-77-----
Eb-5-0----0-333-55555-5-x----0-333-000-xx-55----0-333-55555-55----0-333-55-----

thats it. its really easy and if u play along with the song u can see its perfect lata
Comments