Green Day - Walking Contradiction Chords & Tabs

 

Walking Contradiction Chords & Tabs

Green Day Chords & Tabs

Version: 5 Type: Tab 0 ratings
1 star 2 stars 3 stars 4 stars 5 stars
comments

Walking Contradiction Tab

Ok,this is my first tab so don't get mad if i screw it all up.
This is the intro...

|----------------------------------------------------------|
|----------------------------------------------------------|
|----------------------------------------------------------|
|-7-7-7-7-7-7-7-7-7-7-7-7-7-7-7-7-7-7-7-7-7-7-7-7~ let ring|
|-7-7-7-7-7-7-7-7-7-7-7-7-7-7-7-7-7-7-7-7-7-7-7-7~---------|
|-5-5-5-5-5-5-5-5-5-5-5-5-5-5-5-5-5-5-5-5-5-5-5-5~---------|
pm  . . . . .   . . . . .     . . . . . . . 


This is playes throughout the whole song except the chorus:
[ Tab from: http://www.guitartabs.cc/tabs/g/green_day/walking_contradiction_tab_ver_5.html ]
|-------------------------|
|-------------------------|
|-------------------------|
|-7x9-9x5-5x7-7-----------|
|-7x9-9x5-5x7-7-----------|
|-5x7-7x3-3x5-5-----------|

Chorus:

|---------------------------------------------------------|
|---------------------------------------------------------|
|---------------------------------------------------------|
|-7-7-7-9-9-9-5-5-5-5-5-----------------------------------|
|-7-7-7-9-9-9-5-5-5-5-5-----------------------------------|
|-5-5-5-7-7-7-3-3-3-3-3-----------------------------------|

THERE YOU HAVE IT! I'm almost positive that it's correct!
buh bye...brake_p
Comments