Green Day - Walking Contradiction Chords & Tabs

 

Walking Contradiction Chords & Tabs

Green Day Chords & Tabs

Version: 3 Type: Tab 0 ratings
1 star 2 stars 3 stars 4 stars 5 stars
comments

Walking Contradiction Tab

Greenday - Walking Contradiction, Isomniac
Tabbed By:Mike,hawker8@aol.com
Standard Tuning
*=palm mute
This is the correct way to play it. Gurranteed!

Intro
e---------------------------------x2
B---------------------------------
G---------------------------------
D-6--6-6-6-6-6-6-6-6-6-6-6-6-6-6--
A-6--6-6-6-6-6-6-6-6-6-6-6-6-6-6--
E-4--4-4-4-4-4-4-4-4-4-4-4-4-4-4--
     * * * * * * * * * * * * * *
[ Tab from: http://www.guitartabs.cc/tabs/g/green_day/walking_contradiction_tab_ver_3.html ]
Verse
e----------------------
B----------------------
G-------6--------------
D-6--6--6--4--4--6--6--
A-6--6--4--4--4--6--6--
E-4--4-----2--2--4--4--

Chorus
e---------------------------------
B---------------------------------
G-6--6----------------------------
D-6--6--4-4-4--6-6-6-6-6-6-6-6-6--
A-4--4--4-4-4--6-6-6-6-6-6-6-6-6--
E-------2-2-2--4-4-4-4-4-4-4-4-4--

Thats it! just play the Intro twice then keep playing the 
Verse, do the Chorus a couple times, go back to the Verse
then the Chorus again.
Comments