Green Day - Walking Alone Chords & Tabs

 

Walking Alone Chords & Tabs

Green Day Chords & Tabs

Version: 1 Type: Bass Tab 0 ratings
1 star 2 stars 3 stars 4 stars 5 stars
comments

Walking Alone Bass Tab

   
Walking alone bass tab 
Intro
G---------------------------
D---------------------------
A---------------------------
E-3-3-3-3-3-3-2-1-0-0-0-0-0-
 
Verse
G--------------------------------------------------------
D--------------------------------5----5------------------
A-----------------------------3-3--3-3--5-5-5-5-5-5-3-2-
E-3-3-3-3-3-3-2-1-0-0-0-0-0-0----------------------------
Chorus
G---------------------------------------------------------------
D--------------------------|------------------------------------
A-3-3-3-3-3-5-5-5-5-5-5-3-2|-10-10-8-8-7-7-7-7--3-3-3-3-5-5-5-5-
E---------------------------------------------------------------
                       ...Only Say Hello    Sometimes...
Bridge
G--------------------------------------------------
D-2------------------------------------------------
A---2----4-6-4-----4---4-------6---6---6-------6-7-
E-----4--------4-5---5---5-4-5---7---7---7-6-7-----
Outro
G-----------------------
D-----------------------
A-----------------------
E-3-3-3-3-2-1-0-0-0-0-0-
Kirk
====
[ Tab from: http://www.guitartabs.cc/tabs/g/green_day/walking_alone_btab.html ]
Comments