Green Day - Wake Me Up When Septenber Ends Chords & Tabs

 

Wake Me Up When Septenber Ends Chords & Tabs

Green Day Chords & Tabs

Version: 1 Type: Tab 9 ratings
1 star 2 stars 3 stars 4 stars 5 stars
comments

Wake Me Up When Septenber Ends Tab

Green Day
Wake Me Up When September Ends

This is really Accurate.  I pretty sure.


E|--------------||
B|---3---3------||
G|--0---0-------||
D|-5---5--------||
A|--------------||
E|--------------|| x4


E|---------------|---------------|---------------|---------------||
B|------3-----3--|------3-----3--|------3-----3--|------3-----3--||
G|----0-----0----|----0-----0----|----0-----0----|----0-----0----||
D|--5-----5------|--4-----4------|--2-----2------|--0-----0------||
A|---------------|---------------|---------------|---------------||
E|---------------|---------------|---------------|---------------||


E|-----------------|-----------------|-----------------|-----------------||
B|------5-----5----|------4-----4----|-----3------3----|------3-----3----||
G|----5---5-----5--|----5---5-----5--|---0---0------0--|----0---0-----0--||
D|-----------------|-----------------|-----------------|-----------------||
A|--3-------3------|--3-------3------|-----------------|-----------------||
E|-----------------|-----------------|--3-------3------|--3-------3------||

E|---------------|---------------|---------------|---------------||
B|------3-----3--|------3-----3--|------3-----3--|------3-----3--||
G|----0-----0----|----0-----0----|----0-----0----|----0-----0----||
D|--5-----5------|--4-----4------|--2-----2------|--0-----0------||
A|---------------|---------------|---------------|---------------||
E|---------------|---------------|---------------|---------------||


E|---------------|---------------|---------------|----------------||
B|-----5-----5---|-----4-----4---|----3------3---|-----3------0---||
G|---5---5-----5-|---5---5-----5-|--0---0------0-|---0---0---0--0-||
D|---------------|---------------|---------------|----------------||
A|-3-------3-----|-3-------3-----|---------------|----------------||
E|---------------|---------------|-3-------3-----|-3-------2------||


E|----------------|-----------------|----------------|----------------||
B|-----0-----0----|-----3------3----|-----5-----5----|-----3-------0--||
G|---0---0-----0--|---0---0------0--|---0---0-----0--|---0---0---0---0||
D|----------------|-----------------|----------------|----------------||
A|----------------|-2-------2-------|-3-------3------|----------------||
E|-0-------0------|-----------------|----------------|-3-------2------||


E|----------------|-----------------|----------------|----------------||
B|-----0-----0----|-----3------3----|-----5-----5----|-----7-------7--||
G|---0---0-----0--|---0---0------0--|---0---0-----0--|---0---0---0---0||
D|----------------|-----------------|----------------|----------------||
A|----------------|-2-------2-------|-3-------3------|-5------5-------||
E|-0-------0------|-----------------|----------------|----------------||


E|---------------|---------------|---------------|---------------||
B|------3-----3--|------3-----3--|------3-----3--|------3-----3--||
G|----0-----0----|----0-----0----|----0-----0----|----0-----0----||
D|--5-----5------|--4-----4------|--2-----2------|--0-----0------||
A|---------------|---------------|---------------|---------------||
E|---------------|---------------|---------------|---------------||


E|-----------------|-----------------|-----------------|-----------------||
B|------5-----5----|------4-----4----|-----3------3----|------3-----3----||
G|----5---5-----5--|----5---5-----5--|---0---0------0--|----0---0-----0--||
D|-----------------|-----------------|-----------------|-----------------||
A|--3-------3------|--3-------3------|-----------------|-----------------||
E|-----------------|-----------------|--3-------3------|--3-------3------||


E|--------------||
B|------3-----3-||
G|----0-----0---||
D|--5-----5-----||
A|--------------||
E|--------------|| x2

E|--------------||
B|------3-----3-||
G|----0-----0---||
D|--5-----5-----||
A|--------------||
E|--------------|| x2
 

E|---------------|---------------|---------------|---------------||
B|------3-----3--|------3-----3--|------3-----3--|------3-----3--||
G|----0-----0----|----0-----0----|----0-----0----|----0-----0----||
D|--5-----5------|--4-----4------|--2-----2------|--0-----0------||
A|---------------|---------------|---------------|---------------||
E|---------------|---------------|---------------|---------------||


E|-----------------|-----------------|-----------------|-----------------||
B|-----------------|-----------------|-----------------|-----------------||
G|-5-5-5-5-5-5-5-5-|-5-5-5-5-5-5-5-5-|-----------------|-----------------||
D|-5-5-5-5-5-5-5-5-|-5-5-5-5-5-5-5-5-|-5-5-5-5-5-5-5-5-|-5-5-5-5-5-5-5-5-||
A|-3-3-3-3-3-3-3-3-|-3-3-3-3-3-3-3-3-|-5-5-5-5-5-5-5-5-|-5-5-5-5-5-5-5-5-||
E|---------------- |-----------------|-3-3-3-3-3-3-3-3-|-3-3-3-3-3-3-3-3-||


E|---------------|---------------|---------------|---------------||
B|------3-----3--|------3-----3--|------3-----3--|------3-----3--||
G|----0-----0----|----0-----0----|----0-----0----|----0-----0----||
D|--5-----5------|--4-----4------|--2-----2------|--0-----0------||
A|---------------|---------------|---------------|---------------||
E|---------------|---------------|---------------|---------------||


E|-----------------|-----------------|-----------------|-----------------||
B|-----------------|-----------------|-----------------|-----------------||
G|-5-5-5-5-5-5-5-5-|-5-5-5-5-5-5-5-5-|-----------------|-----------------||
D|-5-5-5-5-5-5-5-5-|-5-5-5-5-5-5-5-5-|-5-5-5-5-5-5-5-5-|-5-5-5-5-4-4-4-4-||
A|-3-3-3-3-3-3-3-3-|-3-3-3-3-3-3-3-3-|-5-5-5-5-5-5-5-5-|-5-5-5-5-4-4-4-4-||
E|---------------- |-----------------|-3-3-3-3-3-3-3-3-|-3-3-3-3-2-2-2-2-||
[ Tab from: http://www.guitartabs.cc/tabs/g/green_day/wake_me_up_when_septenber_ends_tab.html ]
Chorus -
E|-----------------|-----------------|-----------------|-----------------||
B|-----------------|-----------------|-----------------|-----------------||
G|-----------------|-4-4-4-4-4-4-4-4-|-5-5-5-5-5-5-5-5-|-----------------||
D|-2-2-2-2-2-2-2-2-|-4-4-4-4-4-4-4-4-|-5-5-5-5-5-5-5-5-|-5-5-5-5-4-4-4-4-||
A|-2-2-2-2-2-2-2-2-|-2-2-2-2-2-2-2-2-|-3-3-3-3-3-3-3-3-|-5-5-5-5-4-4-4-4-||
E|-0-0-0-0-0-0-0-0-|-----------------|-----------------|-3-3-3-3-2-2-2-2-||


E|-----------------|-----------------|-----------------|-----------------||
B|-----------------|-----------------|-----------------|-----------------||
G|-----------------|-4-4-4-4-4-4-4-4-|-5-5-5-5-5-5-5-5-|-7-7-7-7-7-7-7-7-||
D|-2-2-2-2-2-2-2-2-|-4-4-4-4-4-4-4-4-|-5-5-5-5-5-5-5-5-|-7-7-7-7-7-7-7-7-||
A|-2-2-2-2-2-2-2-2-|-2-2-2-2-2-2-2-2-|-3-3-3-3-3-3-3-3-|-5-5-5-5-5-5-5-5-||
E|-0-0-0-0-0-0-0-0-|-----------------|-----------------|-----------------||


E|---------------|---------------|---------------|---------------||
B|------3-----3--|------3-----3--|------3-----3--|------3-----3--||
G|----0-----0----|----0-----0----|----0-----0----|----0-----0----||
D|--5-----5------|--4-----4------|--2-----2------|--0-----0------||
A|---------------|---------------|---------------|---------------||
E|---------------|---------------|---------------|---------------||


E|-----------------|-----------------|-----------------|-----------------||
B|-----------------|-----------------|-----------------|-----------------||
G|-5-5-5-5-5-5-5-5-|-5-5-5-5-5-5-5-5-|-----------------|-----------------||
D|-5-5-5-5-5-5-5-5-|-5-5-5-5-5-5-5-5-|-5-5-5-5-5-5-5-5-|-5-5-5-5-4-4-4-4-||
A|-3-3-3-3-3-3-3-3-|-3-3-3-3-3-3-3-3-|-5-5-5-5-5-5-5-5-|-5-5-5-5-4-4-4-4-||
E|---------------- |-----------------|-3-3-3-3-3-3-3-3-|-3-3-3-3-2-2-2-2-||


Solo Time!

E|-----7-----7---7-|-----7-----7---7-|-----8-----8---8-|-----------------||
B|-8-8---8-8---8---|-7-7---7-7---7---|-8-8---8-8---8---|-8-8-8-8-7-7-7-7-||
G|-----------------|-----------------|-----------------|-----------------||
D|-----------------|-----------------|-----------------|-----------------||
A|-----------------|-----------------|-----------------|-----------------||
E|-----------------|-----------------|-----------------|-----------------||

E|-----------------|-----------------|-----------------|-----------------||
B|-----------------|-----------------|-----------------|-----------------||
G|-----------------|-4-4-4-4-4-4-4-4-|-5-5-5-5-5-5-5-5-|-----------------||
D|-2-2-2-2-2-2-2-2-|-4-4-4-4-4-4-4-4-|-5-5-5-5-5-5-5-5-|-5-5-5-5-4-4-4-4-||
A|-2-2-2-2-2-2-2-2-|-2-2-2-2-2-2-2-2-|-3-3-3-3-3-3-3-3-|-5-5-5-5-4-4-4-4-||
E|-0-0-0-0-0-0-0-0-|-----------------|-----------------|-3-3-3-3-2-2-2-2-||

E|-----7-----7---7-|-----7-----7---7-|-----8-----8---8-||
B|-8-8---8-8---8---|-7-7---7-7---7---|-8-8---8-8---8---||
G|-----------------|-----------------|-----------------||
D|-----------------|-----------------|-----------------||
A|-----------------|-----------------|-----------------||
E|-----------------|-----------------|-----------------||

E|-----------------|-----------------|-----------------||
B|-----------------|-----------------|-----------------||
G|-----------------|-4-4-4-4-4-4-4-4-|-5-5-5-5-5-5-5-5-||
D|-2-2-2-2-2-2-2-2-|-4-4-4-4-4-4-4-4-|-5-5-5-5-5-5-5-5-||
A|-2-2-2-2-2-2-2-2-|-2-2-2-2-2-2-2-2-|-3-3-3-3-3-3-3-3-||
E|-0-0-0-0-0-0-0-0-|-----------------|-----------------||

E|-----------------|-----------------|
B|-----------------|-----------------|
G|-7-7-7-7-7-7-7-7-|-7-7-7-7-7-7-7-7-|
D|-7-7-7-7-7-7-7-7-|-7-7-7-7-7-7-7-7-|
A|-5-5-5-5-5-5-5-5-|-5-5-5-5-5-5-5-5-|
E|-----------------|-----------------|x2

E|-----------------|-----------------|
B|-8-8-8-8-8-8-8-8-|-7-7-7-7-7-7-7-7-|
G|-----------------|-----------------|
D|-----------------|-----------------|
A|-----------------|-----------------|
E|-----------------|-----------------| x2

E|--------------||
B|------3-----3-||
G|----0-----0---||
D|--5-----5-----||
A|--------------||
E|--------------|| x4


E|-10------|-10------|-10------|-10---15--||
B|------8--|------8--|------8--|----------||
G|---------|---------|---------|----------||
D|---------|---------|---------|----------||
A|---------|---------|---------|----------||
E|---------|---------|---------|----------|| x2

E|---------------|---------------|---------------|---------------||
B|------3-----3--|------3-----3--|------3-----3--|------3-----3--||
G|----0-----0----|----0-----0----|----0-----0----|----0-----0----||
D|--5-----5------|--4-----4------|--2-----2------|--0-----0------||
A|---------------|---------------|---------------|---------------||
E|---------------|---------------|---------------|---------------||


E|-----------------|-----------------|-----------------|-----------------||
B|-----------------|-----------------|-----------------|-----------------||
G|-5-5-5-5-5-5-5-5-|-5-5-5-5-5-5-5-5-|-----------------|-----------------||
D|-5-5-5-5-5-5-5-5-|-5-5-5-5-5-5-5-5-|-5-5-5-5-5-5-5-5-|-5-5-5-5-5-5-5-5-||
A|-3-3-3-3-3-3-3-3-|-3-3-3-3-3-3-3-3-|-5-5-5-5-5-5-5-5-|-5-5-5-5-5-5-5-5-||
E|---------------- |-----------------|-3-3-3-3-3-3-3-3-|-3-3-3-3-3-3-3-3-||


E|---------------|---------------|---------------|---------------||
B|------3-----3--|------3-----3--|------3-----3--|------3-----3--||
G|----0-----0----|----0-----0----|----0-----0----|----0-----0----||
D|--5-----5------|--4-----4------|--2-----2------|--0-----0------||
A|---------------|---------------|---------------|---------------||
E|---------------|---------------|---------------|---------------||


E|-----------------|-----------------|-----------------|-----------------||
B|-----------------|-----------------|-----------------|-----------------||
G|-5-5-5-5-5-5-5-5-|-5-5-5-5-5-5-5-5-|-----------------|-----------------||
D|-5-5-5-5-5-5-5-5-|-5-5-5-5-5-5-5-5-|-5-5-5-5-5-5-5-5-|-5-5-5-5-5-5-5-5-||
A|-3-3-3-3-3-3-3-3-|-3-3-3-3-3-3-3-3-|-5-5-5-5-5-5-5-5-|-5-5-5-5-5-5-5-5-||
E|---------------- |-----------------|-3-3-3-3-3-3-3-3-|-3-3-3-3-3-3-3-3-|| x3


E|-----------------|-----------------|-----------------|-----------------||
B|-----------------|-----------------|-----------------|-----------------||
G|-5-5-5-5-5-5-5-5-|-5-5-5-5-5-5-5-5-|-----------------|-----------------||
D|-5-5-5-5-5-5-5-5-|-5-5-5-5-5-5-5-5-|-5-5-5-5-5-5-5-5-|-5~--------------||
A|-3-3-3-3-3-3-3-3-|-3-3-3-3-3-3-3-3-|-5-5-5-5-5-5-5-5-|-5~--------------||
E|---------------- |-----------------|-3-3-3-3-3-3-3-3-|-3~--------------|| 

			
Comments