Green Day - Wake Me Up When September Ends Chords & Tabs

 

Wake Me Up When September Ends Chords & Tabs

Green Day Chords & Tabs

Version: 3 Type: Tab 3 ratings
1 star 2 stars 3 stars 4 stars 5 stars
comments

Wake Me Up When September Ends Tab

Intro:
E|------------------------------------------------------------|
B|-----3-----3--------3-----3--------3-----3--------3-----3---|
G|---0-----0--------0-----0--------0-----0--------0-----0-----|
D|-5-----5--------5-----5--------5-----5--------5-----5-------|
A|------------------------------------------------------------|
E|------------------------------------------------------------|

Riff:
E|---------------------------------------------------------------------------------|
B|-----3-----3--------3-----3--------3-----3--------3-----3-----5----5-----4----4--|
G|---0-----0--------0-----0--------0-----0--------0-----0-----5----5-----5----5----|
D|-5-----5--------4-----4--------2-----2--------0-----0-----5----5-----5-----5-----|
A|---------------------------------------------------------------------------------|
E|---------------------------------------------------------------------------------|
[ Tab from: http://www.guitartabs.cc/tabs/g/green_day/wake_me_up_when_september_ends_tab_ver_3.html ]
Chorus:
E|---------------------------------------------------------------|
B|---------------------------------------------------------------|
G|--------------------------------------4-----4--------5-----5---|
D|-----4--------3--------2-----2------4-----4--------5-----5-----|
A|---4--------3--------2-----2------2-----2--------3-----3-------|
E|-2--------1--------0-----0-------------------------------------|

E|---------------------------------------------------------------|
B|---------------------------------------------------------------|
G|--------------------------------------4-----4--------5-----5---|
D|-----5--------4--------2-----2------4-----4--------5-----5-----|
A|---5--------4--------2-----2------2-----2--------3-----3-------|
E|-3--------2--------0-----0-------------------------------------|

E|------------------------------------------------------------------------------------------|
B|--------------------3-----3--------3-----3--------3-----3--------3-----3--5---5---4---4---|
G|-----7-----7------0-----0--------0-----0--------0-----0--------0-----0---5---5---5---5----|
D|---7-----7------5-----5--------4-----4--------2-----2--------0-----0----5---5---5---5-----|
A|-5-----5----------------------------------------------------------------------------------|
E|------------------------------------------------------------------------------------------|
 not the endin just use the riff
Comments