Green Day - Wake Me Up When September Ends Chords & Tabs

 

Wake Me Up When September Ends Chords & Tabs

Green Day Chords & Tabs

Version: 7 Type: Bass Tab 0 ratings
1 star 2 stars 3 stars 4 stars 5 stars
comments

Wake Me Up When September Ends Bass Tab

Slide in at 1:45
Chorus
G|----------------------------------|
D|----------------------------------|
A|/3333333333333333-----------------|
E|------------------3333333333333333|

(1:54)
Verse
G|-------------------------------------|
D|----12-----12---12--12---9--9---7--5-|
A|1010---1010---99--99---77-77--55-55--|
E|-------------------------------------|

(2:03)
Chorus
G|---------------------------------|
D|---------------------------------|
A|3333333333333333-----------------|
E|-----------------3333333333333333|

(2:13)
G|------------------------------------------------------------------|
D|------------------------------------------------------------------|
A|--------2222222233333333-----------------222222223333333355555555-|
E|00000000----------------33332222-00000000-------------------------|

(2:31)
Verse
G|-------------------------------------|
D|----12-----12---12--12---9--9---7--5-|
A|1010---1010---99--99---77-77--55-55--|
E|-------------------------------------|
[ Tab from: http://www.guitartabs.cc/tabs/g/green_day/wake_me_up_when_september_ends_btab_ver_7.html ]
(2:40)
G|-----
Chorus----------------------------|
D|---------------------------------|
A|3333333333333333-----------------|
E|-----------------3333333333333333|

(2:49)
Solo
G|------------------------------------------------------------------| 
D|------------------------------------------------------------------| 
A|--------2222222233333333-----------------222222223333333355555555-|
E|00000000----------------33332222-00000000-------------------------|
Play the last 5 until end of solo.

Rest until 3:33
Chorus
G|---------------------------------|
D|---------------------------------|
A|3333333333333333-----------------|
E|-----------------3333333333333333|

(3:41)
Verse
G|-------------------------------------|
D|----12-----12---12--12---9--9---7--5-|
A|1010---1010---99--99---77-77--55-55--|
E|-------------------------------------|

(3:51)Chorus
G|---------------------------------|
D|---------------------------------|
A|3333333333333333-----------------|
E|-----------------3333333333332222|x2

End (4:09)
G|----------------------------------|
D|----------------------------------|
A|3333333333333333------------------|
E|-----------------3333333333333333~|



Comments