Green Day - Wake Me Up When September Ends Chords & Tabs

 

Wake Me Up When September Ends Chords & Tabs

Green Day Chords & Tabs

Version: 1 Type: Bass Tab 19 ratings
1 star 2 stars 3 stars 4 stars 5 stars
comments

Wake Me Up When September Ends Bass Tab

Wake Me Up When September Ends By Green day

The bass dosen't come in for the start of the song i think you have to wait something like 1 minute
and 40 seconds or something like that. Anyway, it comes in with the chorus. Here it is...

G------------------------------------------------------------------
D------------------------------------------------------------------
A--3-3-3-3-3-3-3-3-3-3-3-3-3-3-3-3---------------------------------
E----------------------------------3-3-3-3-3-3-3-3-3-3-3-3-3-3-3-3-

Verse

G-------------------------------------------------------------------
D-------------------------------------------------------------------
A----5-5-5-5-5-5--4-4-4-4-4-4--2-2-2-2-2-2-0-0-0-0-0-0--------------
E-------------------------------------------------------------------

Bridge (Here comes the rain again, falling from the stars...)
[ Tab from: http://www.guitartabs.cc/tabs/g/green_day/wake_me_up_when_september_ends_btab.html ]
G--------------------------------------------------------------------------
D--------------------------------------------------------------------------
A------------------2-2-2-2-2-2-2-2-3-3-3-3-3-3-3-3-------------------------
E--0-0-0-0-0-0-0-0---------------------------------3-3-3-3-3-2-2-2-2-2-0---

(Drenched in my pain again, becoming who we are...)

G--------------------------------------------------------------------------
D--------------------------------------------------------------------------
A------------------2-2-2-2-2-2-2-2-3-3-3-3-3-3-3-3-5-5-5-5-5-5-5-5---------
E--0-0-0-0-0-0-0-0---------------------------------------------------------

Solo

G--------------------------------------------------------------------------
D--------------------------------------------------------------------------
A------------------2-2-2-2-2-2-2-2-3-3-3-3-3-3-3-3-------------------------
E--0-0-0-0-0-0-0-0---------------------------------3-3-3-3-3-2-2-2-2-2-0---

Order:
Chorus
Verse
Chorus
Bridge
Verse
Solo
Chorus
Verse
Chorus x3
Comments