Green Day - Waiting Chords & Tabs

 

Waiting Chords & Tabs

Green Day Chords & Tabs

Version: 9 Type: Tab 0 ratings
1 star 2 stars 3 stars 4 stars 5 stars
comments

Waiting Tab

By: eatcrayons822 (FReddy AlleN)

iight this is how it is
i realized that none of these tabs had this so i figerd i do it\!
HOPE Y'ALL LIKE IT!


thats the tuning!
 |
 V    verse:
eb|---------------------------------------------------------------------------|
Bb|---4--------------------------4--------------------------------------------|
Gb|------5----3h5---6---5---3----------5-----3h5----6---5----3----5-----------|
Db|--------------------------------------------------------------------6------|
Ab|---------------------------------------------------------------------------|
Eb|---------------------------------------------------------------------------|
[ Tab from: http://www.guitartabs.cc/tabs/g/green_day/waiting_tab_ver_9.html ]
eb|-----------------------------------1-----------------------4---------------|
Bb|-----------------------------3--------3--------------6--------6------------|
Gb|---3----5----6----5---3----3----3--------3--------6----6--------6----------|
Db|---------------------------------------------------------------------------|
Ab|---------------------------------------------------------------------------|
Eb|---------------------------------------------------------------------------|

eb|----------------11----------------11---------------11----------------------|
Bb|----------13---------13----13-----------13------13-----13------------------|
Gb|-------13----13---------13-----13------------13------------13--------------|
Db|---------------------------------------------------------------------------|
Ab|---------------------------------------------------------------------------|
Eb|---------------------------------------------------------------------------|
then it goes back to the couse
with these cords
eb|---------------------------------------------------------------------------|
Bb|---------------------------------------------------------------------------|
Gb|------------7----------7---------------------------------------------------|
Db|-------7----7-----9----7---------------------------------------------------|
Ab|-------7----5-----9----5---------------------------------------------------|
Eb|-------5----------7--------------------------------------------------------|
Comments