Green Day - Waiting Chords & Tabs

 

Waiting Chords & Tabs

Green Day Chords & Tabs

Version: 6 Type: Tab 0 ratings
1 star 2 stars 3 stars 4 stars 5 stars
comments

Waiting Tab

   
Now Then......

Intro and Verse
e-----------------------------|
b-----------------------------|
g--------666666--------666666-|
d-666666-666666-888888-666666-|
a-666666-444444-888888-444444-|
e-444444--------666666--------|

Chorus
e-----------------------------|
b-----------------------------|
g-----------------------------|
d-333333-222222-888888-666666-|
a-333333-222222-888888-666666-|
e-111111-000000-666666-444444-|

Interlude
e-----------------------|
b-----------------------|
g-666-----666-----6---6-|
d-666-666-666-666-6-6-6-|
a-444-666-444-666-4-6-4-|
e-----444-----444---4---|
[ Tab from: http://www.guitartabs.cc/tabs/g/green_day/waiting_tab_ver_6.html ]
Solo (Use Vibrato with every Note*)
e---------------|
b-2-------------|
g---5-3-5-6-5-3-|
d---------------|
a---------------|
e---------------|

e---------------|
b-2-------------|
g---5-3-5-6-5-3-|
d---------------|
a---------------|
e---------------|

e---------------|
b---------------|
g-5-1-3-5-6-5-3-|
d---------------|
a---------------|
e---------------|

*Except This Bit
e---------------|
b---3---6---3---|
g-3---3---3---3-|
d---------------|
a---------------|
e---------------|

e---------|
b---------|
g-1-1-1-1-|
d---------|
a---------|
e---------|

Order Of Play:
Intro/Verse x6
Chorus x1
Intro/Verse x1
Chorus x1
Solo x1
Chorus x1
Intro/Verse x1
(5 Second Pause)
Intro/Verse x4


They You Go!. Any Queries gettinrowdy2k@hotmail.com
Comments